Oops, an error
Loading. Please wait.

Six Degrees Of Separation Tab

version 1
version 1

Whole song

30,330 views 27 this week
6 commentsread comments
1 2 3 4 5
accurate
x 11
add to favorites
launch autoscroll
font size
0
reset
how to read this tab
guitar tuner
Autoscroll
slow
fast
+/-
esc
set tempo
stop
Help us to improve Ultimate-Guitar.com Take our survey!
×
Author
Difficulty
Capo
intermediate
9th fret
-------------------------------------------------------------------------------
      SIX DEGREES OF SEPARATION - The Script
-------------------------------------------------------------------------------
Tabbed by: Sikorad15
           PLEASE RATE!!!!!!!
Tuning: Standard

Capo 9

this is the way Danny plays it in the music video. im sure this is 99% right.
The whole song is fingerpicked.

     Verses (all the same)
e|-----------------------------------------------------------------------------|
B|---3------3------3-----3--------3-----3-----3-----3--------------------------|
G|---0------0------0-----0--------0-----0-----0-----0--------------------------|
D|-----------------------------------------------------------------------------|
A|-----------------------------------------------------------------------------|
E|------3-------3-----3-----3--------2-----2-----2-----2-----------------------|
           You've read the books...                watched the shows....
            Medicated..........                      Hypnotized
e|-----------------------------------------------------------------------------|
B|---5-----5------5------5---------7-------7-------7-------7-------------------|
G|---0-----0------0------0---------0-------0-------0-------0-------------------|
D|-----------------------------------------------------------------------------|
A|-----------------------------------------------------------------------------|
E|------3------3------3------3----------5--------5------5-------5--------------|
            What's the best way.....            No one Knows...
                       Anything to take i         from your mind but it
X2


e|-----------------------------------------------------------------------------|
B|----5-----5-------5-------7-------7--------7------7---------7----------------|
G|----0-----0-------0-------0-------0--------0------0---------0----------------|
D|-----------------------------------------------------------------------------|
A|-----------------------------------------------------------------------------|
E|-------3-------3------3--------5-------5--------5------5---------5----------|
                Won't................... Go.............
                                  Oh.............
e|-----------------------------------------------------------------------------|
B|-----3-------3-------3------3------3-----3-----3-------3---------------------|
G|-----0-------0-------0------0------0-----0-----0-------0---------------------|
D|-----------------------------------------------------------------------------|
A|-----------------------------------------------------------------------------|
E|--------3-------3--------3------3-----3------3-------3------3----------------|
         You're doing all these things out of desperation.........
            You're going through six degrees of separation..

Chorus
    Em7              C9                  G                D
e|----3---------------3------------------3---------------3--------------------|
B|----3---------------3------------------3---------------3--------------------|
G|----0---------------0------------------0---------------2--------------------|
D|----2---------------2------------------0---------------0--------------------|
A|----2---------------3------------------2---------------0--------------------|
E|----0---------------X------------------3---------------2--------------------|

Em7                  C9
First, you think the worst is a broken heart
G                    D
What's gonna kill you is the second part
Em7        C9                   G                        D
And the third, Is when your world splits down the middle
Em7                   C9
And fourth, you're gonna think that you fixed yourself
G                              D
Fifth, you see them out with someone else
Em7             C9                         G                D
And the sixth, is when you admit that you may have f**ked up a little


Em7         C9                    G                   D
(Oh no there ain't no help, it's every man for himself)
Em7        C9                  G                   D
(No no there ain't no help, it's every man for himself)


Bridge
Em7
No there's no starting over,
D
Without finding closure,
Em7
you'd take them back, No hesitation,
C9
That's when you know you've reached the sixth degree of separation
Suggest correction
comments
print report bad tab
6 comments total. Showing first comments.
0 reply
sikorad15 254 wrote on December 6 2012, 11:51 am

i messed up the bridge a little. its a D for ''without finding closure''

+1 reply
akshey 10 wrote on December 6 2012, 02:24 pm

Lad Great job on the tab..Just wanna tell you that i'm pretty sure he moves up to the 5th fret in the bass when you reach 7th fret on b-string..I hope i was articulate there .
Correct me if I'm wrong .

0 reply
DaniquexJDxPOTC 10 wrote on April 9 2013, 08:07 am

Its PREFECT ! I love it ! <3

guest
You may want to rate the tab now too:
select rating
Please do not post tabs as comments. Select "correction" instead!