Oops, an error
Loading. Please wait.

The Man Who Cant Be Moved Tab

version 2
version 2

Intro

Interactive

4,984 views 21 this week
1 commentread comment
1 2 3 4 5
accurate
x 4
add to favorites
launch autoscroll
font size
0
reset
how to read this tab
guitar tuner
Autoscroll
slow
fast
+/-
esc
set tempo
stop
Help us to improve Ultimate-Guitar.com Take our survey!
×
Difficulty
novice
-------------------------------------------------------|
-------------------------------------------------------|
------2-------2---------------2-------2----------------|
----2-------2-------2-------2-------2-------2----------|
--0-------0-------0------------------------------------|
--------------------------4-------4-------4------------|

-------------------------------------------------------|
------0-------2---------------0-------2----------------|
----2-------2-------2-------2-------2-------2----------|
--0-------0-------0-------0-------0-------0------------|
-------------------------------------------------------|
-------------------------------------------------------|
just repeat,this is my first tab :)
Suggest correction new What's this?
You can suggest a correction to this tab. Community and Mods will review your correction and vote to approve or reject it.
comments
print report bad tab
1 comment total.
0 reply
gyawaliprajwal2 11 wrote on May 22 2016, 12:30 am

bakwas... not good

guest
You may want to rate the tab now too:
select rating
Please do not post tabs as comments. Select "correction" instead!