Oops, an error
Loading. Please wait.
We have an official The Man Who Cant Be Moved tab made by UG professional guitarists. Check out the tab »
×

The Man Who Cant Be Moved tab

159,583 views 30 this week
4 commentsread comments
1 2 3 4 5
x 7
add to favorites
×
Save as Personal and add changes to this tab that will be seen only by you. Learn more ›
×
You can save this tab as Personal to edit and correct it or add notes. All changes will be seen only by you. Learn more »
launch autoscroll
font size
0
reset
how to read this tab
guitar tuner
edit
Autoscroll
slow
fast
+/-
esc
set tempo
stop
Author
[Intro/Verse]
e|------------------------------------------------------------------|
B|------------------------------------------------------------------|
G|------------------------------------5--5-7-5--------5--5-7-5------|
D|---8--8------------8--8-----------8--8-------8----8--8-------8----|
A|--5--5---5--------5--5--5--------6--------------6-----------------|
E|-6--6---6--------5--5--5------------------------------------------|

Or

e|-------------------------------------------------------------------|
B|---------------------------------------1---1-3-1--------1---1-3-1--|
G|-----3-----3---------3-----3---------3---3-------3----3---3-------3|
D|---0-----0-----0---0-----0-----0---1----------------1--------------|
A|-1-----1-----1---0-----0-----0-------------------------------------|
E|-------------------------------------------------------------------|

            
            
Suggest correction
Creating personal tab
Creating personal tab
You can edit any tab online and save it as your Personal.

You can edit, replace or remove any tab part or add personal notes – all changes will be seen only by you.

Personal tabs can be accessed anytime from any device, even offline.
Learn more »
comments
print report bad tab
4 comments total. Showing first comments.
-1 reply
Snuffels 10 Aug 16, 2008 09:58 AM

good but isn't there more to the song?

-1 reply
joekickass-2007 21 Aug 18, 2008 09:50 AM

Yeah the chorus and the bridge are missing

-1 reply
RockurSocks132 21 Oct 03, 2008 09:35 AM

dude this is only the intro

guest
You may want to rate the tab now too:
select rating
Wanna post a correction for this tab? Suggest correction