Oops, an error
Loading. Please wait.

The Man Who Cant Be Moved Tab

version 1
version 1
97,510 views 48 this week
4 commentsread comments
1 2 3 4 5
x 6
add to favorites
launch autoscroll
font size
0
reset
how to read this tab
guitar tuner
Autoscroll
slow
fast
+/-
esc
set tempo
stop
Help us to improve Ultimate-Guitar.com Take our survey!
×
Difficulty
novice
Well basically it's the same thing throughout the whole song...just repeat =]

|------------------------------------------------------------------|
|------------------------------------------------------------------|
|-----3-----3---------3-----3----------1-----3---------1-----3-----|
|---0-----0-----0---0-----0-----0----0-----0-----0---0-----0-----0-|
|-1-----1-----1---0-----0-----0----3-----3-----3---3-----3-----3---|
|------------------------------------------------------------------|

There are no pauses, just every note after eachother. Even when it repeats.

I worked out this tab by listenning to the song and then playing the notes on the 
so sorry if some of the notes arn't accurate =]

Nikki x
Suggest correction
comments
print report bad tab
4 comments total. Showing first comments. show 1 bad comment
+1 reply
MeowMeowMeow 30 Jul 19, 2008 01:43 PM

I tabbed out this song too and it is just the same apart from yours is played on a different position along the neck. I think the last part should be:

|-------------------------------------------------------------------|
|---------------------------------------1---1-3-1--------1---1-3-1--|
|-----3-----3---------3-----3---------3---3-------3----3---3-------3|
|---0-----0-----0---0-----0-----0---1----------------1--------------|
|-1-----1-----1---0-----0-----0-------------------------------------|
|-------------------------------------------------------------------|

+1 reply
Broken5trings 10 May 16, 2010 02:59 PM

Hello. So I tabbed out another reasonably easy version or this, that sounds very similar, but not the same as the actual song. I find it's a little more accurate, but not quite as simple...


e|--------------------------------------------------------|
B|----------------------------1---3---1--------1---3------|
G|-----3---3------3---3------3---3---3---3----3---3---3---|
D|---0---0---0---0---0---0--1---1---1---1----1---1---1----|
A|-1---1---1---0---0---0----------------------------------|
E|--------------------------------------------------------|

guest
You may want to rate the tab now too:
select rating
Wanna post a correction for this tab? Suggest correction