Oops, an error
Loading. Please wait.
We have an official The Man Who Cant Be Moved tab made by UG professional guitarists. Check out the tab »
×

The Man Who Cant Be Moved tab

650 views 1 this week
no commentswrite comment
1 2 3 4 5
3 more votes to show rating
add to favorites
×
Save as Personal and add changes to this tab that will be seen only by you. Learn more ›
×
You can save this tab as Personal to edit and correct it or add notes. All changes will be seen only by you. Learn more »
launch autoscroll
font size
0
reset
how to read this tab
guitar tuner
edit
Autoscroll
slow
fast
+/-
esc
set tempo
stop
Author
Difficulty
Tabbed off studio version, no capo

[GUITAR 1 - Arpeggios]

Intro
e-----------------|-----------------|-----------------|-----------------| 
b-----------------|-----------------|-----1-----3-----|-----1-----3-----|
G-----3-----3-----|-----3-----3-----|---3-----3-----3-|---3-----3-----3-|
D---0-----0-----0-|---0-----0-----0-|-1-----1-----1---|-1-----1-----1---|
A-1-----1-----1---|-0-----0-----0---|-----------------|-----------------|
E-----------------|-----------------|-----------------|-----------------|

Verse 1
e-----------------|-----------------|-----------------|-----------------| 
b-----------------|-----------------|-----1-----3-----|-----1-----3-----|
G-----3-----3-----|-----3-----3-----|---3-----3-----3-|---3-----3-----3-|
D---0-----0-----0-|---0-----0-----0-|-1-----1-----1---|-1-----1-----1---|
A-1-----1-----1---|-0-----0-----0---|-----------------|-----------------|
E-----------------|-----------------|-----------------|-----------------|
"Going back to the corner where i first saw you
 Gonna camp in my sleeping bag im not gonna move"

e-----------------|-----------------|-----------------|-----------------| 
b-----------------|-----------------|-----1-----3-----|-----1-----3-----|
G-----3-----3-----|-----3-----3-----|---3-----3-----3-|---3-----3-----3-|
D---0-----0-----0-|---0-----0-----0-|-1-----1-----1---|-1-----1-----1---|
A-1-----1-----1---|-0-----0-----0---|-----------------|-----------------|
E-----------------|-----------------|-----------------|-----------------|
"Got some words on cardboard got your picture in my hand, saying
 If u see this girl can u tell her where i am?"

e-----------------|-----------------|-----------------|-----------------| 
b-----------------|-----------------|-----1-----3-----|-----1-----3-----|
G-----3-----3-----|-----3-----3-----|---3-----3-----3-|---3-----3-----3-|
D---0-----0-----0-|---0-----0-----0-|-1-----1-----1---|-1-----1-----1---|
A-1-----1-----1---|-0-----0-----0---|-----------------|-----------------|
E-----------------|-----------------|-----------------|-----------------|
"Some try to hand me money but they dont understand
 Im not broke im just a brokenhearted man"

e-----------------|-----------------|-----------------|-----------------| 
b-----------------|-----------------|-----1-----3-----|-----1-----3-----|
G-----3-----3-----|-----3-----3-----|---3-----3-----3-|---3-----3-----3-|
D---0-----0-----0-|---0-----0-----0-|-1-----1-----1---|-1-----1-----1---|
A-1-----1-----1---|-0-----0-----0---|-----------------|-----------------|
E-----------------|-----------------|-----------------|-----------------|
"I know it makes no sense but what else can i do?
 How can i move on when im still in love with you?"

First Chorus
e-----------------|-----1-----------|-----------------|-----------------| 
b-----------------|-----------3-----|-----3-----------|-----3-----------|
G-----3-----3-----|---2-----2-----2-|-----------3h5---|-----------3-----|
D---0-----0-----0-|-3-----3-----3---|---5-----5-------|---5-----5-----5-|
A-1-----1-----1---|-----------------|-3-----3-------3-|-6-----6-----6---|
E-----------------|-----------------|-----------------|-----------------|
"Cause if one day you wake up and find that you're missing me
 And your heart starts to wonder where on this earth i could be"

e-----------------|-----1-----------|-----------------|-----------------| 
b-----------------|-----------3-----|-----3-----------|-----3-----------|
G-----3-----3-----|---2-----2-----2-|-----------3h5---|-----------3-----|
D---0-----0-----0-|-3-----3-----3---|---5-----5-------|---5-----5-----5-|
A-1-----1-----1---|-----------------|-3-----3-------3-|-6-----6-----6---|
E-----------------|-----------------|-----------------|-----------------|
"Thinking maybe you'd come back into the place where we meet
 And you see me waiting for you on the corner of street

e-----------------|-----1-----------|-----------------|-----------------| 
b-----------------|-----------3-----|-----3-----------|-----3-----------|
G-----3-----3-----|---2-----2-----2-|-----------3h5---|-----------3-----|
D---0-----0-----0-|-3-----3-----3---|---5-----5-------|---5-----5-----5-|
A-1-----1-----1---|-----------------|-3-----3-------3-|-6-----6-----6---|
E-----------------|-----------------|-----------------|-----------------|
"So im not moving....im not moving....."

Interlude
e-----------------|-----------------|-----------------|-----------------| 
b-----------------|-----------------|-----1-----3-----|-----1-----3-----|
G-----3-----3-----|-----3-----3-----|---3-----3-----3-|---3-----3-----3-|
D---0-----0-----0-|---0-----0-----0-|-1-----1-----1---|-1-----1-----1---|
A-1-----1-----1---|-0-----0-----0---|-----------------|-----------------|
E-----------------|-----------------|-----------------|-----------------|

Verse 2
e-----------------|-----------------|-----------------|-----------------| 
b-----------------|-----------------|-----1-----3-----|-----1-----3-----|
G-----3-----3-----|-----3-----3-----|---3-----3-----3-|---3-----3-----3-|
D---0-----0-----0-|---0-----0-----0-|-1-----1-----1---|-1-----1-----1---|
A-1-----1-----1---|-0-----0-----0---|-----------------|-----------------|
E-----------------|-----------------|-----------------|-----------------|
"Police man said son you cant stay here, i said
 Someone i'm waiting for it's been a day, a month, a year" 

e-----------------|-----------------|-----------------|-----------------| 
b-----------------|-----------------|-----1-----3-----|-----1-----3-----|
G-----3-----3-----|-----3-----3-----|---3-----3-----3-|---3-----3-----3-|
D---0-----0-----0-|---0-----0-----0-|-1-----1-----1---|-1-----1-----1---|
A-1-----1-----1---|-0-----0-----0---|-----------------|-----------------|
E-----------------|-----------------|-----------------|-----------------|
"Gotta stand my ground even if it's rain or snow
 If she changes her mind, this is the first place she'll go

Second Chorus
e-----------------|-----1-----------|-----------------|-----------------| 
b-----------------|-----------3-----|-----3-----------|-----3-----------|
G-----3-----3-----|---2-----2-----2-|-----------3h5---|-----------3-----|
D---0-----0-----0-|-3-----3-----3---|---5-----5-------|---5-----5-----5-|
A-1-----1-----1---|-----------------|-3-----3-------3-|-6-----6-----6---|
E-----------------|-----------------|-----------------|-----------------|
"Cause if one day you wake up and find that you're missing me
 And your heart starts to wonder where on this earth i could be"

e-----------------|-----1-----------|-----------------|-----------------| 
b-----------------|-----------3-----|-----3-----------|-----3-----------|
G-----3-----3-----|---2-----2-----2-|-----------3h5---|-----------3-----|
D---0-----0-----0-|-3-----3-----3---|---5-----5-------|---5-----5-----5-|
A-1-----1-----1---|-----------------|-3-----3-------3-|-6-----6-----6---|
E-----------------|-----------------|-----------------|-----------------|
"Thinking maybe you'd come back into the place where we meet
 And you see me waiting for you on the corner of street

e-----------------|-----1-----------|-----------------|-----------------| 
b-----------------|-----------3-----|-----3-----------|-----3-----------|
G-----3-----3-----|---2-----2-----2-|-----------3h5---|-----------3-----|
D---0-----0-----0-|-3-----3-----3---|---5-----5-------|---5-----5-----5-|
A-1-----1-----1---|-----------------|-3-----3-------3-|-6-----6-----6---|
E-----------------|-----------------|-----------------|-----------------|
"So im not moving....im not moving....."

e-----------------|-----1-----------|-----------------|-----------------| 
b-----------------|-----------3-----|-----3-----------|-----3-----------|
G-----3-----3-----|---2-----2-----2-|-----------3h5---|-----------3-----|
D---0-----0-----0-|-3-----3-----3---|---5-----5-------|---5-----5-----5-|
A-1-----1-----1---|-----------------|-3-----3-------3-|-6-----6-----6---|
E-----------------|-----------------|-----------------|-----------------|
"Im not moving....Im not moving"

Bridge
e-----3-----------|-----------------|-----------------|-----------------| 
b-----------6-----|-----6-----------|-----3-----1-----|-----4-----3-----|
G---0-----0-----0-|-----------7-----|---2-----2-----2-|---------------5-|
D-5-----5-----5---|---5-----5-----5-|-3-----3-----3---|---5-----5-------|
A-----------------|-6-----6-----6---|-----------------|-3-----3-----3---|
E-----------------|-----------------|-----------------|-----------------|
"People talk about the guy who's waiting on a girl
 OOooooohhhh"

e-----3-----------|-----------------|-----------------|-----------------| 
b-----------6-----|-----6-----------|-----3-----1-----|-----4-----3-----|
G---0-----0-----0-|-----------7-----|---2-----2-----2-|---------------5-|
D-5-----5-----5---|---5-----5-----5-|-3-----3-----3---|---5-----5-------|
A-----------------|-6-----6-----6---|-----------------|-3-----3-----3---|
E-----------------|-----------------|-----------------|-----------------|
"There are no holes in his shoes but a big hole in his world
 Mmmmmmmm"

e-----------------|-----------------|-----------------|-----------------| 
b-----3-----3-----|-----6-----6-----|-----3-----3-----|-----6-----6-----|
G---3-----3-----3-|---5-----5-----5-|---3-----3-----3-|---5-----5-----5-|
D-1-----1-----1---|-3-----3-----3---|-1-----1-----1---|-3-----3-----3---|
A-----------------|-----------------|-----------------|-----------------|
E-----------------|-----------------|-----------------|-----------------|
"Maybe i'll get famous as the man who cant be moved
 Maybe you wont mean to, but you'll see me on the news"

e-----------------|-----------------|-----------------|-----------------| 
b-----3-----3-----|-----6-----6-----|-----3-----3-----|-----3-----3-----|
G---3-----3-----3-|---5-----5-----5-|---3-----3-----3-|---3-----3-----3-|
D-1-----1-----1---|-3-----3-----3---|-----------------|-----------------|
A-----------------|-----------------|-3-----3-----3---|-3-----3-----3---|
E-----------------|-----------------|-----------------|-----------------|
"And you'll come running to the corner cause you know it's just for you
 Im the man who cant be moved"
 
e-----------------|-----------------| 
b-----1-----1-----|-----4-----4-----|
G---3-----3-----3-|---0-----0-------|
D-----------------|-----------------|
A-3-----3-----3---|-3-----3---------|
E-----------------|-----------------|
"Im the man who cant be moved."

Final Chorus
e-----------------|-----1-----------|-----------------|-----------------| 
b-----------------|-----------3-----|-----3-----------|-----3-----------|
G-----3-----3-----|---2-----2-----2-|-----------3h5---|-----------3-----|
D---0-----0-----0-|-3-----3-----3---|---5-----5-------|---5-----5-----5-|
A-1-----1-----1---|-----------------|-3-----3-------3-|-6-----6-----6---|
E-----------------|-----------------|-----------------|-----------------|
"Cause if one day you wake up and find that you're missing me
 And your heart starts to wonder where on this earth i could be"

e-----------------|-----1-----------|-----------------|-----------------| 
b-----------------|-----------3-----|-----3-----------|-----3-----------|
G-----3-----3-----|---2-----2-----2-|-----------3h5---|-----------3-----|
D---0-----0-----0-|-3-----3-----3---|---5-----5-------|---5-----5-----5-|
A-1-----1-----1---|-----------------|-3-----3-------3-|-6-----6-----6---|
E-----------------|-----------------|-----------------|-----------------|
"Thinking maybe you'd come back into the place where we meet
 And you see me waiting for you on the corner of street

e-----------------|-----1-----------|-----------------|-----------------| 
b-----------------|-----------3-----|-----3-----------|-----3-----------|
G-----3-----3-----|---2-----2-----2-|-----------3h5---|-----------3-----|
D---0-----0-----0-|-3-----3-----3---|---5-----5-------|---5-----5-----5-|
A-1-----1-----1---|-----------------|-3-----3-------3-|-6-----6-----6---|
E-----------------|-----------------|-----------------|-----------------|
"So im not moving....im not moving....."

e-----------------|-----1-----------|-----------------|-----------------| 
b-----------------|-----------3-----|-----3-----------|-----3-----------|
G-----3-----3-----|---2-----2-----2-|-----------3h5---|-----------3-----|
D---0-----0-----0-|-3-----3-----3---|---5-----5-------|---5-----5-----5-|
A-1-----1-----1---|-----------------|-3-----3-------3-|-6-----6-----6---|
E-----------------|-----------------|-----------------|-----------------|
"Im not moving....Im not moving"

Coda
e-----------------|-----------------|-----------------|-----------------| 
b-----------------|-----------------|-----1-----3-----|-----1-----3-----|
G-----3-----3-----|-----3-----3-----|---3-----3-----3-|---3-----3-----3-|
D---0-----0-----0-|---0-----0-----0-|-1-----1-----1---|-1-----1-----1---|
A-1-----1-----1---|-0-----0-----0---|-----------------|-----------------|
E-----------------|-----------------|-----------------|-----------------|
"Going back to the corner where i first saw you
 Gonna camp in my sleeping bag im not gonna move"



[GUITAR 2 - Fills and Backing Guitar]

(Intro and Verse dont have any fills)

First Chorus
e-----------------|-----------------|-----------------|-----------------| 
b-----------------|-----------------|-----------------|-----------------|
G-----------------|-----------------|-----------------|-----------------|
D-----------------|-----------------|-----------------|-----------------|
A-----------------|-----------------|-----------------|-----------------|
E-----------------|-----------------|-----------------|-----------------|
"Cause if one day you wake up and find that you're missing me
 And your heart starts to wonder where on this earth i could be"

e-----------------|-----------------|-----------------|-----------------| 
b-----------------|-----------------|-----------------|-----------------|
G-----------------|-----------------|-----------------|-----------------|
D-----------------|-----------------|-----------------|-----------------|
A-----------------|-----------------|-----------------|-----------------|
E-----------------|-----------------|-----------------|-----------------|
"And then maybe you'd come back into the place where we meet
 And you see me waiting for you on the corner of street

e-----------------|-----------------|-----------------|-----------------| 
b-----------------|-----------------|-----8~----6~----|-----6~--(6)-----|
G-----------------|-----------------|-----------------|-----------------|
D-----------------|-----------------|-----------------|---5-------------|
A-----------------|-----------------|-----------------|-----------------|
E-----------------|-----------------|-----------------|-----------------|
"So im not moving....im not moving....."

(Interlude doesnt have any fills too)

Verse 2
e-----------------|-----------------|-----------------|-----------------| 
b-----------------|-----------------|-----------------|-----------------|
G-----------------|-----------------|-----------------|-----------------|
D-----------------|-----------------|-----------------|-----------------|
A-----------------|-----------------|-----------------|-----------------|
E-----------------|-----------------|-----------------|-----------------|
"Police man said son you cant stay here, i said
 Someone i'm waiting for it's been a day, a month, a year" 

e-----------------|-----------------|-----------------|-----------------| 
b-----------------|-----------------|-4-4-4-4-4-4-4-4-|-4-4-4-4-4-4-4-4-|
G-3-3-3-3-3-3-3-3-|-5-5-5-5-5-5-5-5-|-3-3-3-3-3-3-3-3-|-3-3-3-3-3-3-3-3-|
D-3-3-3-3-3-3-3-3-|-3-3-3-3-3-3-3-3-|-1-1-1-1-1-1-1-1-|-1-1-1-1-1-1-1-1-|
A-1-1-1-1-1-1-1-1-|-0-0-0-0-0-0-0-0-|-----------------|-----------------|
E-----------------|-----------------|-----------------|-----------------|
"Gotta stand my ground even if it's rain or snow
 If she changes her mind, this is the first place she'll go

Second Chorus
(All are power tabs so rather than confuse you i'll just put chord format here)

       A#5                                 F5
Cos if one day you wake up and find that your missing me,
           C5                                   D#5
And your heart starts to wonder where on this earth I can be,
         A#5                                 F5
Thinking maybe you'd come back here to the place that we'd meet,
           C5                             D#5             
And you'd see me waiting for you on the corner of the street
        A#5        F5
So I'm not moving...
        C5      D#5
I'm not moving.
        A#5        F5
So I'm not moving...
        C5       D#5
I'm not moving.
        A#5        F5
So I'm not moving...
        C5       D#5
I'm not moving.

Bridge
e-----------------|-----------------|---5~------------|---3~------------|
b-----------------|-----------------|--6~-------------|--4~-------------|
G-----------------|-----------------|-5~--------------|-3~--------------|
D-----------------|-----------------|-----------------|-----------------|
A-----------------|-----------------|-----------------|-----------------|
E-----------------|-----------------|-----------------|-----------------|
"people talk about the guy who's waitin' on a girl.....oooooooohhhhhh"

e---6~------------|-----------------|---5~------------|---3~------------| 
b--8~-------------|-----------------|--6~-------------|--4~-------------|
G-7~--------------|-----------------|-5~--------------|-3~--------------|
D-----------------|-----------------|-----------------|-----------------|
A-----------------|-----------------|-----------------|-----------------|
E-----------------|-----------------|-----------------|-----------------|       
      "there are no holes in his shoe but a big hole in his world.."

e-----------------|-----------------|-----------------|-----------------| 
b-----------------|-----------------|-----------------|-----------------|
G-----------------|-----------------|-----------------|-----------------|
D-----------------|-----------------|-----------------|-----------------|
A-----------------|-----------------|-----------------|-----------------|
E-----------------|-----------------|-----------------|-----------------|
"Maybe i'll get famous as the man who cant be moved
 Maybe you wont mean to, but you'll see me on the news"

e-----------------|-----------------|----3~-----------|-----------------| 
b-----------------|-----------------|----3~-----------|-----------------|
G-----------------|-----------------|----5~-----------|-----------------|
D-----------------|-----------------|-----------------|-----------------|
A-----------------|-----------------|-----------------|-----------------|
E-----------------|-----------------|-----------------|-----------------|
"And you'll come running to the corner cause you know it's just for you
 Im the man who cant be moved"

e------------3~---|-----------------| 
b------------3~---|-----------------|
G-3/5--------5~---|-----------------|
D-----------------|-----------------|
A-----------------|-----------------|
E-----------------|-----------------|
"Im the man who cant be moved."

Final Chorus
(All are power tabs so rather than confuse you i'll just put chord format here)

       A#5                                 F5
Cos if one day you wake up and find that your missing me,
           C5                                   D#5
And your heart starts to wonder where on this earth I can be,
         A#5                                 F5
Thinking maybe you'd come back here to the place that we'd meet,
           C5                             D#5             
And you'd see me waiting for you on the corner of the street
        A#5        F5
So I'm not moving...
        C5      D#5
I'm not moving.
        A#5        F5
So I'm not moving...
        C5       D#5
I'm not moving.
        A#5        F5
So I'm not moving...
        C5       D#5
I'm not moving.

(Coda doesnt have any guitar fills)


[GUITAR 3 - Final Chorus fills]

This guitar fills appear only in the final chorus, when the "So i'm not moving..." part
is overlapped with "Cause if one day you'll wake up....." part
Technically, the second half of the final chorus

e-11\-----6~------|-6/-----13~------|-13\-----8~------|-8/------11~-----| 
b-----------------|-----------------|-----------------|-----------------|
G-----------------|-----------------|-----------------|-----------------|
D-----------------|-----------------|-----------------|-----------------|
A-----------------|-----------------|-----------------|-----------------|
E-----------------|-----------------|-----------------|-----------------|
"So im not moving....im not moving....."

e-11\-----6~------|-6/-----13~------|-13\-----8~------|-8/------11~-----| 
b-----------------|-----------------|-----------------|-----------------|
G-----------------|-----------------|-----------------|-----------------|
D-----------------|-----------------|-----------------|-----------------|
A-----------------|-----------------|-----------------|-----------------|
E-----------------|-----------------|-----------------|-----------------|
"Im not moving.......im not moving...."

I think that should do about it. Sorry if it's too long
Had to adjust it with lyrics so it wont confuse you all...

If u just use one guitar, i reccomend just play [GUITAR 1] until the second verse
Play with power chords [GUITAR 2] on the second chorus, 
and then back to arpeggios [GUITAR 1] on the bridge
On the final chorus, use the power chords [GUITAR 2] and then back to [GUITAR 1] on the coda

If u use 2 guitars, play the final chorus using one guitar as [GUITAR 2] 
and the other do the [GUITAR 3] fills

Hope this tab works cos i didnt found any tab of this song 
which contain the complete guitar part, the fills and the final chorus bit,
mostly just the intro part. Please rate and comment, thanks!

-Abel was Here- 

            
            
Suggest correction
Creating personal tab
Creating personal tab
You can edit any tab online and save it as your Personal.

You can edit, replace or remove any tab part or add personal notes – all changes will be seen only by you.

Personal tabs can be accessed anytime from any device, even offline.
Learn more »
Give kudos to tab author, rate the tab!
1 2 3 4 5
comments
print report bad tab
guest
You may want to rate the tab now too:
select rating
Wanna post a correction for this tab? Suggest correction