Oops, an error
Loading. Please wait.
We have an official The Man Who Cant Be Moved tab made by UG professional guitarists. Check out the tab »
×

The Man Who Cant Be Moved Live tab

34 views 1 this week
no commentswrite comment
1 2 3 4 5
3 more votes to show rating
add to favorites
×
Save as Personal and add changes to this tab that will be seen only by you. Learn more ›
×
You can save this tab as Personal to edit and correct it or add notes. All changes will be seen only by you. Learn more »
launch autoscroll
font size
0
reset
how to read this tab
guitar tuner
edit
Autoscroll
slow
fast
+/-
esc
set tempo
stop
About this tab version
The intro picking pattern that is heard throughout the song is tabbed as played by the guitarist in the live version and seems to be easier or simpler to pick and finger for a beginner compared to other tabs. The rest of the song was tabbed out using the previous work of others in a format that was easier for me to follow and remember. Was this info helpful? Yes No
The fingering for the intro picking pattern is based on the live version of the song
played at the BBCRadio Live Lounge as seen here - https://www.youtube.com/watch?v=yxqGkFnC8-o

This is how the guitarist in the background played the beginning melody line / picking pattern. 
It not only matched the song well, but it was far easier to finger than the other tabs I saw so it 
might be better suitable for beginners.

Capo 3rd Fret


[Picking Intro that plays throughout the song]
e|--------------------|---------------------|---------------------|------------------------|
B|--------------------|---------------------|---------------------|------------------------|
G|--------------------|---------------------|-------0-----2-------|-------0-----2----------|
D|------3-----3-------|-------3-----3-------|-----3-----3-----3---|-----3-----3-----3------|
A|----0-----0-----0---|-----0-----0-----0---|---1-----1-----1-----|---1-----1-----1--------|
E|--1-----1-----1-----|---0-----0-----0-----|---------------------|------------------------|

[Verse]
    G           D/F#         C          C
e|--3-----------2------------0----------0----------------------------|
B|--3-----------3------------1----------1----------------------------|
G|--0-----------2------------0----------0----------------------------|   X 4
D|--0-----------0------------2----------2----------------------------|
A|--2-----------0------------3----------3----------------------------|
E|--3-----------2------------3----------3----------------------------|
              
     The E(2) on the D/F# is easier played with Thumb.

     "Going back to the corner where I first saw you, gonna camp in my sleeping back, I'm not gonna move...
      ...How can i move on when I'm still in love with you."

[Chorus]
    G           D/F#         Am         C
e|--3-----------2------------0----------0----------------------------|
B|--3-----------3------------1----------1----------------------------|
G|--0-----------2------------2----------0----------------------------|   X 3
D|--0-----------0------------2----------2----------------------------|
A|--2-----------0------------0----------3----------------------------|
E|--3-----------2------------0----------3----------------------------|

     "...Cause if one day you wake up and find that you're missing me, and your heart starts to wonder 
         where on this earth I could be...
      ... I'm not moving...I'm not moving."


[Turnaround]
    G           D/F#         C          C
e|--3-----------2------------0----------0----------------------------|
B|--3-----------3------------1----------1----------------------------|
G|--0-----------2------------0----------0----------------------------|   X 1
D|--0-----------0------------2----------2----------------------------|
A|--2-----------0------------3----------3----------------------------|
E|--3-----------2------------3----------3----------------------------|
               

[Verse]
    G           D/F#         C          C
e|--3-----------2------------0----------0----------------------------|
B|--3-----------3------------1----------1----------------------------|
G|--0-----------2------------0----------0----------------------------|   X 2
D|--0-----------0------------2----------2----------------------------|
A|--2-----------0------------3----------3----------------------------|
E|--3-----------2------------3----------3----------------------------|

[Chorus]
    G           D/F#         Am         C
e|--3-----------2------------0----------0----------------------------|
B|--3-----------3------------1----------1----------------------------|
G|--0-----------2------------2----------0----------------------------|   X 4
D|--0-----------0------------2----------2----------------------------|
A|--2-----------0------------0----------3----------------------------|
E|--3-----------2------------0----------3----------------------------|


[Bridge]
    Em          C            D          Am
e|--0-----------0------------2----------0----------------------------|
B|--0-----------1------------3----------1----------------------------|
G|--0-----------0------------2----------2----------------------------|   X 2
D|--2-----------2------------0----------2----------------------------|
A|--2-----------3------------0----------0----------------------------|
E|--0-----------3------------0----------0----------------------------|
               
    C            D                          Am
e|--0------------2----------|           e|--0------|
B|--1------------3----------|           B|--1------|
G|--0------------2----------|   X 3     G|--2------|   X 1 +...
D|--2------------0----------|           D|--2------|
A|--3------------0----------|           A|--0------|
E|--3------------0----------|           E|--0------|


     "...People talk about the guy who's waiting on a girl, oh who's...
      ...I'm the man that can't be moved."

[Chorus]
    G           D/F#         Am         C
e|--3-----------2------------0----------0----------------------------|
B|--3-----------3------------1----------1----------------------------|
G|--0-----------2------------2----------0----------------------------|   X 4
D|--0-----------0------------2----------2----------------------------|
A|--2-----------0------------0----------3----------------------------|
E|--3-----------2------------0----------3----------------------------|


[End/Outro]
    G           D/F#         C          C
e|--3-----------2------------0----------0----------------------------|
B|--3-----------3------------1----------1----------------------------|
G|--0-----------2------------0----------0----------------------------|   X 1
D|--0-----------0------------2----------2----------------------------|
A|--2-----------0------------3----------3----------------------------|
E|--3-----------2------------3----------3----------------------------| 

            
            
Suggest correction
Creating personal tab
Creating personal tab
You can edit any tab online and save it as your Personal.

You can edit, replace or remove any tab part or add personal notes – all changes will be seen only by you.

Personal tabs can be accessed anytime from any device, even offline.
Learn more »
Give kudos to tab author, rate the tab!
1 2 3 4 5
comments
print report bad tab
guest
You may want to rate the tab now too:
select rating
Wanna post a correction for this tab? Suggest correction