Oops, an error
Loading. Please wait.

The Man Who Cant Be Moved Tab

version 4
version 4
122,443 views 51 this week
5 commentsread comments
1 2 3 4 5
excellent!
x 49
add to favorites
launch autoscroll
font size
0
reset
how to read this tab
guitar tuner
Autoscroll
slow
fast
+/-
esc
set tempo
stop
Help us to improve Ultimate-Guitar.com Take our survey!
×
Author
mouseboy 187
-------------------------------------------------------------------------------
                             The Man who cant be moved - The Script
-------------------------------------------------------------------------------
Tabbed by: james day
Email: jamesday_90@msn.com

hi everyone, i had to perform this for a media project, and i couldn't find one complete, 
decent tab, so i listened to it and came up with this, 
from a little help with a couple of the ones already on here,

 so thank you :)

this is my first tab by the way so let me know if i should carry on trying

Tuning:standard capo on 5th

Intro

e|--------------------------------------------------------------------------|
B|--------------------------------------------------------------------------|
G|----------------------------------------0-----2-------0-----2-------------|
D|-----3-----3-----------3-----3--------3-----3---3---3-----3----3----------|
A|---0-----0-----0-----0-----0-----0--1-----1-------1-----1-----------------|
E|-1-----1-----1-----0-----0-----0------------------------------------------|

Verse

e|--------------------------------------------------------------------------|
B|--------------------------------------------------------------------------|
G|----------------------------------------0-----2-------0-----2-------------|
D|-----3-----3-----------3-----3--------3-----3---3---3-----3----3----------|
A|---0-----0-----0-----0-----0-----0--1-----1-------1-----1-----------------|
E|-1-----1-----1-----0-----0-----0------------------------------------------|

Going back to the corner where I first saw you, 
Gonna camp in my sleeping bag. I'm not gonna move, 


e|--------------------------------------------------------------------------|
B|--------------------------------------------------------------------------|
G|----------------------------------------0-----2-------0-----2-------------|
D|-----3-----3-----------3-----3--------3-----3---3---3-----3----3----------|
A|---0-----0-----0-----0-----0-----0--1-----1-------1-----1-----------------|
E|-1-----1-----1-----0-----0-----0------------------------------------------|

Got some words on cardboard got your picture in my hand, 
Saying if you see this girl can you tell her where I am,


e|--------------------------------------------------------------------------|
B|--------------------------------------------------------------------------|
G|----------------------------------------0-----2-------0-----2-------------|
D|-----3-----3-----------3-----3--------3-----3---3---3-----3----3----------|
A|---0-----0-----0-----0-----0-----0--1-----1-------1-----1-----------------|
E|-1-----1-----1-----0-----0-----0------------------------------------------|

Some try to hand me money they don't understand, 
I'm not... broke I'm just a broken hearted man, 

e|--------------------------------------------------------------------------|
B|--------------------------------------------------------------------------|
G|----------------------------------------0-----2-------0-----2-------------|
D|-----3-----3-----------3-----3--------3-----3---3---3-----3----3----------|
A|---0-----0-----0-----0-----0-----0--1-----1-------1-----1-----------------|
E|-1-----1-----1-----0-----0-----0------------------------------------------|

I know it makes no sense, but what else can I do, 
How can I move on when I'm still in love with you.

Chorus 1:

e|--------------------------------------------------------------------------|
B|--------------------------------------------------------------------------|
G|-----2-----2-----------------------------------------3-----3--------------|
D|---2-----2-----2-----2-----2---------5-----5-------3-----3-----3----------|
A|-0-----0-----0-----2-----2-----2---5-----5-----5-1-----1-----1------------|
E|-----------------0-----0-----0---3-----3-----3----------------------------|

Cos if one day you wake up and find that you're missing me, 
And your heart starts to wonder where on this earth I can be, 

e|--------------------------------------------------------------------------|
B|--------------------------------------------------------------------------|
G|-----2-----2-----------------------------------------3-----3--------------|
D|---2-----2-----2-----2-----2---------5-----5-------3-----3-----3----------|
A|-0-----0-----0-----2-----2-----2---5-----5-----5-1-----1-----1------------|
E|-----------------0-----0-----0---3-----3-----3----------------------------|

Thinking maybe you'd come back here to the place that we'd meet, 
And you'd see me waiting for you on the corner of the street.

e|---------------------------------------------------------------------------|
B|---------------------------------------------------------------------------|
G|-------------------------9--10---------------------------------------------|
D|----------7------10--10---------8------------------------------------------|
A|-8--8--10------------------------------------------------------------------|
E|---------------------------------------------------------------------------|

So i'm not moving   I'm not moving



e|--------------------------------------------------------------------------|
B|--------------------------------------------------------------------------|
G|----------------------------------------0-----2-------0-----2-------------|
D|-----3-----3-----------3-----3--------3-----3---3---3-----3----3----------|
A|---0-----0-----0-----0-----0-----0--1-----1-------1-----1-----------------|
E|-1-----1-----1-----0-----0-----0------------------------------------------|

verse 2


e|--------------------------------------------------------------------------|
B|--------------------------------------------------------------------------|
G|----------------------------------------0-----2-------0-----2-------------|
D|-----3-----3-----------3-----3--------3-----3---3---3-----3----3----------|
A|---0-----0-----0-----0-----0-----0--1-----1-------1-----1-----------------|
E|-1-----1-----1-----0-----0-----0------------------------------------------|

Policeman says son you can't stay here, 
I said there's someone I'm waiting for if it's a day, a month, a year,

e|--------------------------------------------------------------------------|
B|--------------------------------------------------------------------------|
G|----------------------------------------0-----2-------0-----2-------------|
D|-----3-----3-----------3-----3--------3-----3---3---3-----3----3----------|
A|---0-----0-----0-----0-----0-----0--1-----1-------1-----1-----------------|
E|-1-----1-----1-----0-----0-----0------------------------------------------|

Gotta stand my ground even if it rains or snows, 
If she changes her mind this is the first place she will go.

Chorus 2


e|-------3----------------------------------2----------------|
B|-------3----------------------------------3----------------|
G|-------0----------------------------------2----------------|
D|-------0----------------------------------0----------------|
A|-------2---------------------------------------------------|
E|-------3---------------------------------------------------|
  Cos if one day you wake up and find that you're missing me, 
 
e|------0------------------------------------------0---------|
B|------1------------------------------------------1---------|
G|------2------------------------------------------0---------|
D|------2------------------------------------------2---------|
A|------0------------------------------------------3---------|
E|------0------------------------------------------0---------|

  And your heart starts to wonder where on this earth i can be

e|-------3----------------------------------2----------------|
B|-------3----------------------------------3----------------|
G|-------0----------------------------------2----------------|
D|-------0----------------------------------0----------------|
A|-------2---------------------------------------------------|
E|-------3---------------------------------------------------|
  Thinking maybe you'd come back to the place that we'd meet 
 
e|------0-----------------------------------0-------------2----|
B|------1-----------------------------------1-------------3----|
G|------2-----------------------------------0-------------2----|
D|------2-----------------------------------2-------------0----|
A|------0-----------------------------------3------------------|
E|------0-----------------------------------0------------------|

  And you'd see me waiting for you on the corner of the street.

e|--3---------------2-------0----------0----|
B|--3---------------3-------1----------1----|
G|--0---------------2-------2----------0----|
D|--0---------------0-------2----------2----|
A|--2-----------------------0----------3----|
E|--3-----------------------0----------0----|

  So i'm not moving,        I'm not moving

e|---------------------------------------------------------------------------|
B|---------------------------------------------------------------------------|
G|-------------------------9--10---------------------------------------------|
D|----------7------10--10---------8------------------------------------------|
A|-8--8--10------------------------------------------------------------------|
E|---------------------------------------------------------------------------|

 I'm not moving   I'm not moving

Bridge:

(im sorry but i couldnt figure this bit out, so any ideas would be greatly appreciated)

People talk about the guy
Whos waiting on a girl... 
Oohoohwoo
There are no holes in his shoes
But a big hole in his world... 
Hmmmm


e|---------------------------------------------------------------------------|
B|---------------------------------------------------------------------------|
G|-------2-------2-------------5--------5------------------------------------|
D|-----3-------3------3------5--------5------5-------------------------------|
A|--1-------1------1------3--------3------3----------------------------------|
E|---------------------------------------------------------------------------|

  And Maybe i'll get famous as the man who cant be moved


e|---------------------------------------------------------------------------|
B|---------------------------------------------------------------------------|
G|-------2-------2-------------5--------5------------------------------------|
D|-----3-------3------3------5--------5------5-------------------------------|
A|--1-------1------1------3--------3------3----------------------------------|
E|---------------------------------------------------------------------------|

 And maybe you wont mean to but you'll see me on the news

e|---------------------------------------------------------------------------|
B|---------------------------------------------------------------------------|
G|-------2-------2-------------5--------5------------------------------------|
D|-----3-------3------3------5--------5------5-------------------------------|
A|--1-------1------1------3--------3------3----------------------------------|
E|---------------------------------------------------------------------------|

   And you'll come running to the corner

e|-------------------------------------------1------------------------------|
B|-------------------------------------------2------------------------------|
G|-------2-------2-------------5--------5----3------------------------------|
D|-----3-------3------3------5--------5------3------------------------------|
A|--1-------1------1------3--------3---------1------------------------------|
E|-------------------------------------------1------------------------------|

  Cos   you'll   know   it's   just   for   you



e|------1------------------3-----------------------------------------------|
B|------2------------------3-----------------------------------------------|
G|------3------------------------------------------------------------------|
D|------3------------------------------------------------------------------|
A|------1------------------------------------------------------------------|
E|------1------------------------------------------------------------------|

  I'm the man who cant be moved, I'm the man who cant be moved

Chorus:


e|-------3----------------------------------2----------------|
B|-------3----------------------------------3----------------|
G|-------0----------------------------------2----------------|
D|-------0----------------------------------0----------------|
A|-------2---------------------------------------------------|
E|-------3---------------------------------------------------|
  Cos if one day you wake up and find that you're missing me, 
                                 (find you're missing me)
e|------0------------------------------------------0---------|
B|------1------------------------------------------1---------|
G|------2------------------------------------------0---------|
D|------2------------------------------------------2---------|
A|------0------------------------------------------3---------|
E|------0------------------------------------------0---------|

  And your heart starts to wonder where on this earth i can be
                                  (where on earth i can be)
e|-------3----------------------------------2----------------|
B|-------3----------------------------------3----------------|
G|-------0----------------------------------2----------------|
D|-------0----------------------------------0----------------|
A|-------2---------------------------------------------------|
E|-------3---------------------------------------------------|
  Thinking maybe you'd come back to the place that we'd meet 
                                        (place that we meet)
e|------0-----------------------------------0-------------2----|
B|------1-----------------------------------1-------------3----|
G|------2-----------------------------------0-------------2----|
D|------2-----------------------------------2-------------0----|
A|------0-----------------------------------3------------------|
E|------0-----------------------------------0------------------|

  And you'd see me waiting for you on the corner of the street.
 (woooaaahhh)

e|-------3----------------------------------2----------------|
B|-------3----------------------------------3----------------|
G|-------0----------------------------------2----------------|
D|-------0----------------------------------0----------------|
A|-------2---------------------------------------------------|
E|-------3---------------------------------------------------|
  Cos if one day you wake up and find that you're missing me, 
  (im            not                  moving)
e|------0------------------------------------------0---------|
B|------1------------------------------------------1---------|
G|------2------------------------------------------0---------|
D|------2------------------------------------------2---------|
A|------0------------------------------------------3---------|
E|------0------------------------------------------0---------|

  And your heart starts to wonder where on this earth i can be
  (im             not                 moving)
e|-------3----------------------------------2----------------|
B|-------3----------------------------------3----------------|
G|-------0----------------------------------2----------------|
D|-------0----------------------------------0----------------|
A|-------2---------------------------------------------------|
E|-------3---------------------------------------------------|
  Thinking maybe you'd come back to the place that we'd meet 
  (im              not                moving)
e|------0-----------------------------------0-------------2----|
B|------1-----------------------------------1-------------3----|
G|------2-----------------------------------0-------------2----|
D|------2-----------------------------------2-------------0----|
A|------0-----------------------------------3------------------|
E|------0-----------------------------------0------------------|

  And you'd see me waiting for you on the corner of the street.
  (im              not                 moving)


e|--------------------------------------------------------------------------|
B|--------------------------------------------------------------------------|
G|----------------------------------------0-----2-------0-----2-------------|
D|-----3-----3-----------3-----3--------3-----3---3---3-----3----3----------|
A|---0-----0-----0-----0-----0-----0--1-----1-------1-----1-----------------|
E|-1-----1-----1-----0-----0-----0------------------------------------------|

Going back to the corner where I first saw you, 
Gonna camp in my sleeping bag. I'm not gonna move
Suggest correction new What's this?
You can suggest a correction to this tab. Community and Mods will review your correction and vote to approve or reject it.
comments
print report bad tab
5 comments total. Showing first comments. show 1 bad comment
+3 reply
ashibarr 26 wrote on August 9 2009, 03:01 am

pretty good but chours not to sure about

-2 reply
Sch1sM 221 wrote on May 20 2011, 11:19 pm

relative to capo, chorus should be F C G

guest
You may want to rate the tab now too:
select rating
Please do not post tabs as comments. Select "correction" instead!