Oops, an error
Loading. Please wait.

We Cry Tab

version 2
version 2

Intro

Whole song

Interactive

16 views 3 this week
no commentswrite comment
1 2 3 4 5
3 more votes to show rating
add to favorites
launch autoscroll
font size
0
reset
how to read this tab
guitar tuner
Autoscroll
slow
fast
+/-
esc
set tempo
stop
Help us to improve Ultimate-Guitar.com Take our survey!
×
Author
Difficulty
novice
E|---------------------------------|---------11--11--10--------------|---------------------------------|
B|---------11--11--10--10----------|---------------------------------|---------11--11--10--10----------|
G|-----12--------------------------|-----12--------------------------|-----12--------------------------|
D|---------------------------------|-10----------10--8---------------|---------------------------------|
A|-10----------10--8---------------|---------------------------------|-10----------10--8---------------|
E|---------------------------------|---------------------------------|---------------------------------|


E|---------------------------------|
B|-----------------10--------------|
G|---------12--12------------------|
D|-----13--------------------------|
A|-----------------8---------------|
E|-11----------11------------------|
Suggest correction
Give kudos to tab author, rate the tab!
1 2 3 4 5
comments
print report bad tab
guest
You may want to rate the tab now too:
select rating
Wanna post a correction for this tab? Suggest correction