Oops, an error
Loading. Please wait.

We Cry tab

version 1
version 1

Whole song

Interactive

80,478 views 6 this week
3 commentsread comments
1 2 3 4 5
x 10
add to favorites
×
Save as Personal and add changes to this tab that will be seen only by you. Learn more ›
×
You can save this tab as Personal to edit and correct it or add notes. All changes will be seen only by you. Learn more »
launch autoscroll
font size
0
reset
how to read this tab
guitar tuner
edit
Autoscroll
slow
fast
+/-
esc
set tempo
stop
Difficulty
intermediate
eadgbe
finger picked
-------------------------------------------------------------|
------------11-11-10----10--------------16-16-15------15-----|
-------------------------------------------------------------|
---------8---------------------------13----------------------|
------10----10-10-8---8-----8-----15----15-15-13---13-----13-|
-------------------------------------------------------------|

----------------------------------------------------------|
------------11-11-10----10-------------8-8---------10-----|
-------------------------------------8---------10------10-|
---------8------------------------------------------------|
------10----10-10-8---8-----8-----6----6-6--8-------------|
----------------------------------------------------------|

http://www.thescriptmusic.com/news.php

            
            
Suggest correction
Creating personal tab
Creating personal tab
You can edit any tab online and save it as your Personal.

You can edit, replace or remove any tab part or add personal notes – all changes will be seen only by you.

Personal tabs can be accessed anytime from any device, even offline.
Learn more »
comments
print report bad tab
3 comments total.
0 reply
liamoshoro 239 Aug 15, 2008 03:47 PM

not bad at all

0 reply
conor123096 50 Sep 02, 2008 12:13 PM

well done that was really good!!!!!!

+1 reply
Aprettch Treytr 10 Jun 28, 2009 04:13 AM

really good tab, only one tiny mistake:

----------------------------------------------------------|
------------11-11-10----10-------------8-8--8------10-----|
-------------------------------------8---------10------10-|
---------8------------------------------------------------|
------10----10-10-8---8-----8-----6----6-6--8-------------|
----------------------------------------------------------|

where there's an 8 on the A string and the B string. Other than that, perfect.

guest
Wanna post a correction for this tab? Suggest correction