Oops, an error
Loading. Please wait.

Tank bass

version 3
version 3

Whole song

Interactive

8,799 views 63 this week
2 commentsread comments
1 2 3 4 5
x 4
add to favorites
×
Save as Personal and add changes to this tab that will be seen only by you. Learn more ›
×
You can save this tab as Personal to edit and correct it or add notes. All changes will be seen only by you. Learn more »
launch autoscroll
font size
0
reset
guitar tuner
edit
Autoscroll
slow
fast
+/-
esc
set tempo
stop
Author
Difficulty
-------------------------------------------------------------------------------
                             Tank! - The Seatbelts
-------------------------------------------------------------------------------
Tabbed by: pantstown

Hi. The other tabs got the main riff wrong.

*10* = played really fast

Repeat this a few times:

G|--------------------|
D|--------------------|
A|---10-9-8-6-------- |
E|-8-----------*10*6--|

Then same thing moved up a string:

G|------------------- |
D|---10-9-8-6---------|
A|-8----------*10*6-- |
E|--------------------|

Finally:

G|-----------------------------------------|
D|-----------------------------------------|
A|--10----10----11----12----0 (let ring)---|
E|-----10----10----11----12 ---------------|

There's other complicated jazz lines in there, but I'm just doing the main part because 
the other tabs were really bothering me.

See you, Space Cowboy. 
=====================
Suggest correction
Creating personal tab
Creating personal tab
You can edit any tab online and save it as your Personal.

You can edit, replace or remove any tab part or add personal notes – all changes will be seen only by you.

Personal tabs can be accessed anytime from any device, even offline.
Learn more »
comments
print report bad tab
2 comments total.
0 reply
munchryan-nicholson 10 Jun 11, 2015 02:18 PM

G|--------------------------------------------|
D|--------------------------------------------|
A|---10-9-8-6----------10-9-8-6------10-9-8-6-|
E|-8-----------*10*6--8---------6--8----------|
I like to do this

0 reply
Ukred 10 Oct 05, 2016 02:26 PM

I prefer playing it like this
G|--------------------|
D|--5-4-3-1-----------|
A|-3---------*10*6--- |
E|--------------------|

G|--------------------|
D|---10-9-8-6-------- |
A|-8-----------*10*6--|
G|--------------------|

D|-------------------------------------|
A|--5----5----6----7-------------------|
E|-----5----5----6----7-0-(let ring)---|
G|-------------------------------------|

so practically the same

guest
You may want to rate the tab now too:
select rating
Wanna post a correction for this tab? Suggest correction