Oops, an error
Loading. Please wait.

Dandelion Milk Summer tab

16 views 3 this week
no commentswrite comment
1 2 3 4 5
3 more votes to show rating
add to favorites
×
Save as Personal and add changes to this tab that will be seen only by you. Learn more ›
×
You can save this tab as Personal to edit and correct it or add notes. All changes will be seen only by you. Learn more »
launch autoscroll
font size
0
reset
how to read this tab
guitar tuner
edit
Autoscroll
slow
fast
+/-
esc
set tempo
stop
-------------------------------------------------------------------------------
                 DANDELION MILK SUMMER - THE SECRET GOLDFISH
-------------------------------------------------------------------------------
Tabbed by:Cowpatable


Tuning:Standard; CAPO 7th fret

************************************

| /   slide up
| \   slide down
| h   hammer-on
| ~   vibrato
| x   Mute note

************************************
_______________________________________________________________________________
                                      INTRO
_______________________________________________________________________________

e|--------------------0-----0--0--0--0--0---||
B|----3----------3----0-----3--3--2--0--0h2-||
G|-2----2-0----0---0--0-----0--0--0--0--0---||
D|-0------0h2---------2-----2--2--2--2--2---||
A|--------------------2--2--2--0--0--0--0---||
E|--------------------0---------------------||
  (let it ring)

MAIN RIFF - Listen for rhythm

e|-0-|-0-|-0-|-2-||
B|-3-|-3-|-3-|-2-||
G|-2-|-0-|-0-|-2-||
D|-0-|-0-|-2-|-2-||
A|---|-x-|-2-|-0-||
E|---|-3-|-0-|---||

_______________________________________________________________________________
                                      VERSE
_______________________________________________________________________________


e|-0-|---|-----------|--------------|-0-|---|-------------------------------|
B|-3-|---|-3---3---3-|-3---3------3-|-3-|---|------14----14----14----14-----|
G|-2-|---|-2h4-2h4-2-|-2h4-2----2---|-2-|---|-------------------------------|
D|-0-|---|-----------|-------4------|-0-|---|-12/14----14----14----14----12-|
A|---|---|-----------|--------------|---|---|-------------------------------|
E|---|---|-----------|--------------|---|---|-------------------------------|
(let ring)

 |----------------------0-------|-------------------------------|
 |-3--3-----3-----3-------3---3-|-----3-----3-----3-----3---3---|
 |-2------2-----2---2-------2---|---2-----2-----2---2---2h4-2---|
 |-0----0-----0-------0---------|-0-----0-----0-------0-------4-|
 |------------------------------|-------------------------------|
 |------------------------------|-------------------------------|

 |------------------------0-------|-2--2--2-2-2-2--2-2--2-2-2-|
 |-----3-----3-----3--------3---3-|-3--3--3-3-3-4--4-4--4-4-4-|
 |---2-----2-----2---2--------2---|-4--4--4-4-4-2--2-2--2-2-2-|
 |-0-----0-----0-------0----------|-4--4--4-4-4-4--4-4--4---4-|
 |--------------------------------|-2--2--2-2-2-2--2-2--2---2-|
 |--------------------------------|---------------------------|

 |---0---|-0--0-0-0-|---0-|-0--0-0--0-0-|---0--0-0-0-|-----------------||
 |---3---|-2--0-2-3-|---3-|-2--2-3--2-3-|---3--3-3-3-|-0-0-0-0-0-0-0-0-||
 |---0---|-0--0-0-0-|---0-|-0--0-0--0-0-|-0-0--0-0-0-|-0-0-0-0-0-0-0-0-||
 |-2-2---|-2--2-2-2-|-2-2-|-2--2-2--2-2-|-2-2--2-2-2-|-0-0-0-0-0-0-0-0 ||
 |-2-----|-0--0-0---|-2---|-0--0-0--0---|-2----------|-x-x-x-x-x-x-x-x-||
 |-0-----|----------|-0---|-------------|-0----------|-3-3-3-3-3-3-3-3-||

_______________________________________________________________________________
                                     CHORUS
_______________________________________________________________________________

               x3
               
e|-0-|-0-|-0-|-2-||-2-|-0-|-0-0||
B|-3-|-3-|-3-|-2-||-3-|-0-|-0-0||
G|-2-|-0-|-0-|-2-||-4-|-1-|-2-1||
D|-0-|-0-|-2-|-2-||-4-|-2-|-2-2||
A|---|-x-|-2-|-0-||-2-|-2-|-2-2||
E|---|-3-|-0-|---||---|-0-|-0-0||
___________
POST CHORUS
___________
                x2

e|-0-|-0-|-0-|-2-||
B|-3-|-3-|-3-|-2-||
G|-2-|-0-|-0-|-2-||
D|-0-|-0-|-2-|-2-||
A|---|-x-|-2-|-0-||
E|---|-3-|-0-|---||

_______________________________________________________________________________
                                     VERSE
_______________________________________________________________________________


e|-0-|---|---------------------------------------|
B|-3-|---|----15----14----14/12---12--14-----14~-|
G|-2-|---|---------------------------------------|
D|-0-|---|-16----14----14---/---12--------14-----|
A|---|---|---------------------------------------|
E|---|---|---------------------------------------|

 |-0-|---|-12-----12----12----12--12---------12----12-----|
 |-3-|---|-12h14--12h14-12-12-12--14-------12--12----12---|
 |-2-|---|-----------------14---------13/14------14----14-|
 |-0-|---|------------------------------------------------|
 |---|---|------------------------------------------------|
 |---|---|------------------------------------------------|

 |----------------------0-------|-------------------------------|
 |-3--3-----3-----3-------3---3-|-----3-----3-----3-----3---3---|
 |-2------2-----2---2-------2---|---2-----2-----2---2---2h4-2---|
 |-0----0-----0-------0---------|-0-----0-----0-------0-------4-|
 |------------------------------|-------------------------------|
 |------------------------------|-------------------------------|

 |------------------------0-------|-2--2--2-2-2-2--2-2--2-2-2-|
 |-----3-----3-----3--------3---3-|-3--3--3-3-3-4--4-4--4-4-4-|
 |---2-----2-----2---2--------2---|-4--4--4-4-4-2--2-2--2-2-2-|
 |-0-----0-----0-------0----------|-4--4--4-4-4-4--4-4--4---4-|
 |--------------------------------|-2--2--2-2-2-2--2-2--2---2-|
 |--------------------------------|---------------------------|

 |---0---|-0--0-0-0-|---0-|-0--0-0--0-0-|---0--0-0-0-|-----------------||
 |---3---|-2--0-2-3-|---3-|-2--2-3--2-3-|---3--3-3-3-|-0-0-0-0-0-0-0-0-||
 |---0---|-0--0-0-0-|---0-|-0--0-0--0-0-|-0-0--0-0-0-|-0-0-0-0-0-0-0-0-||
 |-2-2---|-2--2-2-2-|-2-2-|-2--2-2--2-2-|-2-2--2-2-2-|-0-0-0-0-0-0-0-0 ||
 |-2-----|-0--0-0---|-2---|-0--0-0--0---|-2----------|-x-x-x-x-x-x-x-x-||
 |-0-----|----------|-0---|-------------|-0----------|-3-3-3-3-3-3-3-3-||

_______________________________________________________________________________
CHORUS
_______________________________________________________________________________
          
               x3               

e|-0-|-0-|-0-|-2-||-2-|-0-|-0-0||
B|-3-|-3-|-3-|-2-||-3-|-0-|-0-0||
G|-2-|-0-|-0-|-2-||-4-|-1-|-2-1||
D|-0-|-0-|-2-|-2-||-4-|-2-|-2-2||
A|---|-x-|-2-|-0-||-2-|-2-|-2-2||
E|---|-3-|-0-|---||---|-0-|-0-0||

Repeat once more
_______________________________________________________________________________
BREAK
_______________________________________________________________________________
Guitar one

               x2

e|-0-|-0-|-0-|-2-||-2-|-0-|-0-0||
B|-3-|-3-|-3-|-2-||-3-|-0-|-0-0||
G|-2-|-0-|-0-|-2-||-4-|-1-|-2-1||
D|-0-|-0-|-2-|-2-||-4-|-2-|-2-2||
A|---|-x-|-2-|-0-||-2-|-2-|-2-2||
E|---|-3-|-0-|---||---|-0-|-0-0||

Guitar two

Solo!

e|-----|---|-----------------|---------------||
B|-----|---|-----------------|---------------||
G|-14~-|---|-19~---19~---19~-|--19~--19~-19~-||
D|-----|---|-----------------|---------------||
A|-----|---|-----------------|---------------||
E|-----|---|-----------------|---------------||

Aggressive vibrato on 19th fret.

 |---0---|-0--0-0-0-|---0-|-0--0-0--0-0-|---0--0-0-0-|-----------------||
 |---3---|-2--0-2-3-|---3-|-2--2-3--2-3-|---3--3-3-3-|-0-0-0-0-0-0-0-0-||
 |---0---|-0--0-0-0-|---0-|-0--0-0--0-0-|-0-0--0-0-0-|-0-0-0-0-0-0-0-0-||
 |-2-2---|-2--2-2-2-|-2-2-|-2--2-2--2-2-|-2-2--2-2-2-|-0-0-0-0-0-0-0-0 ||
 |-2-----|-0--0-0---|-2---|-0--0-0--0---|-2----------|-x-x-x-x-x-x-x-x-||
 |-0-----|----------|-0---|-------------|-0----------|-3-3-3-3-3-3-3-3-||

_______________________________________________________________________________
                                 CHORUS/OUTRO
_______________________________________________________________________________
          
               x3               

e|-0-|-0-|-0-|-2-||-2-|-0-|-0-0|  ||-0-2-||
B|-3-|-3-|-3-|-2-||-3-|-0-|-0-0|  ||-3-3-||
G|-2-|-0-|-0-|-2-||-4-|-1-|-2-1|  ||-2-2-||
D|-0-|-0-|-2-|-2-||-4-|-2-|-2-2|  ||-0-0-||
A|---|-x-|-2-|-0-||-2-|-2-|-2-2|  ||-----||
E|---|-3-|-0-|---||---|-0-|-0-0|  ||-----||

Play three times. But the section that starts on B minor only twice.
End with the D major chord.

            
            
Suggest correction
Creating personal tab
Creating personal tab
You can edit any tab online and save it as your Personal.

You can edit, replace or remove any tab part or add personal notes – all changes will be seen only by you.

Personal tabs can be accessed anytime from any device, even offline.
Learn more »
Give kudos to tab author, rate the tab!
1 2 3 4 5
comments
print report bad tab
guest
You may want to rate the tab now too:
select rating
Wanna post a correction for this tab? Suggest correction