Oops, an error
Loading. Please wait.

Tomorrow Will Be Kinder Tab

2,705 views 12 this week
no commentswrite comment
1 2 3 4 5
please rate
add to favorites
launch autoscroll
font size
0
reset
how to read this tab
guitar tuner
Tab Pro tools
  • play this tab
  • loop segment
  • change instrument
  • show fretboard
  • metronome
×
Best way to learn
"Tomorrow Will Be Kinder"
Autoscroll
slow
fast
+/-
esc
set tempo
stop
Contributor
Difficulty
Capo
intermediate
5th fret
-----------------------------------------------------------------
Tomorrow will be kinder – Secret Sisters
-----------------------------------------------------------------
Tabbed by: Kee689
Tuning: Standard
Key of G
Capo 5 or no capo (I prefer with capo on 5)
**strum the last 2 notes of each chord when picking**

INTRO/VERSE 1:
E|------------3--------------3------------0------------3------------|
B|------------3--------------3------------1------------3------------|
G|--------0--------------0--------------0-----------0---------------|
D|-----0--------------0-------------2------------0------------------|
A|------------------------------------------------------------------|
E|--3-------------3--------------0-----------3----------------------|

E|---------------0-----------2-----------2-------------3-------------|
B|---------------2-----------3-----------1-------------3-------------|
G|-----------0------------2-----------2-------------0----------------|
D|-------2-------------0------------0-----------0--------------------|
A|-------------------------------------------------------------------|
E|--0--------------0-------------0-----------3-----------------------|

E|------------0----------3-----------0---------3-----------3----------|
B|------------1----------3-----------1---------3-----------3----------|
G|---------0----------0-----------0---------0----------0--------------|
D|------2----------0-----------2---------0----------2-----------------|
A|--------------------------------------------------------------------|
E|---0----------3-----------0----------3---------0--------------------|


E|------------0--------2----------0----------3----------3--------------|
B|------------2--------3----------1----------3----------3--------------|
G|---------0--------2----------0----------0----------0-----------------|
D|------2---------0---------2----------0-----------0-------------------|
A|---------------------------------------------------------------------|
E|---0----------0---------0----------3---------3-----------------------|


CHORUS
E|-----------0-------------3--------------------3---------------------|
B|-----------1-------------3------3-------------3------3--------------|
G|---------0-----------0--------0-----------0-------0-----------------|
D|------2-----------0-------------0------0-------------0--------------|x2
A|--------------------------------------------------------------------|
E|----0-----------3-------------------3-------------------------------|

E|---------------0------------------3------------------3--------------|
B|----------------------1-----------3------3-----------------3--------|
G|-----------0-------------------0------------------0-----0-----------|
D|--------2----------2--------0---------0---------2-------------------|
A|--------------------------------------------------------------------|
E|----0--------------------3-------------------0----------------------|

E|------------0--------------2-----------------1---------3-------------|
B|------------------2--------------3-----------0---------3-------------|
G|--------0------0---------2----------------0---------0----------------|
D|-----2-----------------0-------0-------2---------0-------------------|
A|---------------------------------------------------------------------|
E|--0------------------0---------------0---------3---------------------|

VERSE 2:
E|-----------3-----------1------------0-------------3--------3--------|
B|-----------3-----------0------------1-------------3--------3--------|
G|--------0-----------0------------0-------------0---------0----------|
D|-----0------------0-----------2-------------0----------0------------|
A|--------------------------------------------------------------------|
E|--3-------------3----------0-----------3------------3---------------|

E|-------0--------------2------------2--------3------0---------3--------|
B|-------2--------------3------------1--------3------1---------3--------|
G|-----0------------2-------------2--------0------0----------0----------|
D|---2-----------0-------------0--------0------2---------0--------------|
A|----------------------------------------------------------------------|
E|-0----------0-----------0----------3------0--------3------------------|

E|-----------3----------0------------2---------0-------3------0---------|
B|-----------3----------2------------3---------1-------3------1---------|
G|--------0----------0------------2---------0--------0------0-----------|
D|-----2----------2------------0---------2-------0-------0--------------|
A|----------------------------------------------------------------------|
E|--0-----------0-----------0---------0------3--------3-----------------|

CHORUS
E|-----------0-------------3--------------------3---------------------|
B|-----------1-------------3------3-------------3------3--------------|
G|---------0-----------0--------0-----------0-------0-----------------|
D|------2-----------0-------------0------0-------------0--------------|x2
A|--------------------------------------------------------------------|
E|----0-----------3-------------------3-------------------------------|

E|---------------0------------------3------------------3--------------|
B|----------------------1-----------3------3-----------------3--------|
G|-----------0-------------------0------------------0-----0-----------|
D|--------2----------2--------0---------0---------2-------------------|
A|--------------------------------------------------------------------|
E|----0--------------------3-------------------0----------------------|

E|------------0--------------2-----------------1---------3-------------|
B|------------------2--------------3-----------0---------3-------------|
G|--------0------0---------2----------------0---------0----------------|
D|-----2-----------------0-------0-------2---------0-------------------|
A|---------------------------------------------------------------------|
E|--0------------------0---------------0---------3---------------------|

OUTRO:
E|-----0------3------3----0----2----0------3----------------------------|
B|-----1------3------3----2----3----1------3----------------------------|
G|-----0------0------0----0----2----0------0----------------------------|
D|-----2------0------2----2----0----2------0----------------------------|
A|-----3------2------2----0----0----3------2----------------------------|
E|------------3------0---------------------3----------------------------|

Intro:
G

Verse 1:
G                             C            G
Black clouds are behind me I now can see ahead
                          A7            D    D7
Often I wonder why I try hoping for an end
G
Sorrow weighs my shoulders down
     C                 G
and trouble haunts my mind
       C                G       Em
But I know the present will not last
       A7     D       C  G
and tomorrow will be kinder


Chorus 1:
   C               G
Tomorrow will be kinder
      C                   G
It's true I've seen it before
   C               G        Em
A brighter day is coming my way
        A7     D       C  G
Yes, tomorrow will be kinder


Verse 2:
   G                     G7       C             G
Today I've cried a many tear and pain is in my heart
  (G)
Around me lies a somber scene
   A7                  D    D7
I don't know where to start
G
But I feel warmth on my skin
     C               G
The stars have all aligned
     C                  G    Em
The wind has blown but now I know
        A7     D       C  G
that tomorrow will be kinder


Chorus 2:
   C               G
Tomorrow will be kinder
   C                   G
I know I've seen it before
   C               G        Em
A brighter day is coming my way
        A7     D       C  G   G7
Yes, tomorrow will be kinder


Outro:
   C               G        Em
A brighter day is coming my way
        A7     D       C  G
Yes, tomorrow will be kinder



from the Hunger Games: Songs from District 12 and Beyond.
comments
We did not receive enough feedback on this tab! Please rate:
print report bad tab
1 2 3 4 5
I want to post or [tab]
guest
You may want to rate the tab now too:
select rating
Please do not post tabs as comments. Select "correction" instead!