Oops, an error
Loading. Please wait.

Boner Tab

166 views 1 this week
no commentswrite comment
1 2 3 4 5
please rate
add to favorites
launch autoscroll
font size
0
reset
how to read this tab
guitar tuner
Autoscroll
slow
fast
+/-
esc
set tempo
stop
Help us to improve Ultimate-Guitar.com Take our survey!
×
Author
Difficulty
novice
A great classic punk song by the Secretions.
Couldnt find tabs anywhere else on the internet
so I did it myself. This is my very first tab
so Im open to criticism. For lyrics, look em
up on google or somethin.

Intro
E-------------------|
B-------------------|
G-------------------|
D-7-7-7-7-7-7-7-5---|  x4
A-7-7-7-7-7-7-7-5---|
E-5-5-5-5-5-5-5-3---|

Verse
E--------------------------------------------------|
B--------------------------------------------------|
G--2-2-2-2-2-2-2-2---------------------------------|
D--2-2-2-2-2-2-2—2-3-3-3-3-3-3-3-3-5-5-5-5-5-5-5-5-|
A--0-0-0-0-0-0-0-0-3-3-3-3-3-3-3-3-5-5-5-5-5-5-5-5-|
E------------------1-1-1-1-1-1-1-1-3-3-3-3-3-3-3-3-|
Youre too young for me...

E------------------|
B------------------|
G-5-5-4-4-2-2-2-2--|   x2
D-5-5-4-4-2-2-2-2--|
A-3-3-2-2-0-0-0-0--|
E------------------|

1st part of refrain
E-------------------------------------------------|
B-------------------------------------------------|
G-------------------------------------------------|
D-3-3-3-3-3-3-3-3-5-5-5-5-5-5-5-5-2-2-2-2-2-2-2-2-|
A-3-3-3-3-3-3-3-3-5-5-5-5-5-5-5-5-2-2-2-2-2—2-2-2-|
E-1-1-1-1-1-1-1-1-3-3-3-3-3-3-3-3-0-0-0-0-0-0-0-0-|
Gonna press my hips against you...

E-------------------------------------------------|
B-------------------------------------------------|
G-------------------------------------------------|
D-3-3-3-3-3-3-3-3-3-3-3-3-3-3-3-3-3-3-3-3-3-3-3-3-|
A-3-3-3-3-3-3-3-3-3-3-3-3-3-3-3-3-3-3-3-3-3-3-3-3-|
E-1-1-1-1-1-1-1-1-1-1-1-1-1-1-1-1-1-1-1-1-1-1-1-1-|

E-------------------------------------------------|
B-------------------------------------------------|
G-------------------------------------------------|
D-5-5-5-5-5-5-5-5-5-5-5-5-5-5-5-5-5-5-5-5-5-5-5-5-|
A-5-5-5-5-5-5-5-5-5-5-5-5-5-5-5-5-5-5-5-5-5-5-5-5-|
E-3-3-3-3-3-3-3-3-3-3-3-3-3-3-3-3-3-3-3-3-3-3-3-3-|

2nd part of refrain
E-------------------------------------------------|
B-------------------------------------------------|
G-5-5-5-5-5-5-5-5-2-2-2-2-2—2-2-2-----------------|
D-5-5-5-5-5-5-5-5-2-2-2-2-2—2-2-2-3-3-3-3-3-3-3-3-|
A-3-3-3-3-3-3-3-3-0-0-0-0-0-0-0-0-3-3-3-3-3-3-3-3-|
E---------------------------------1-1-1-1-1-1-1-1-|
Baby you make me pop a boner...

E-------------------|
B-------------------|
G-------------------|
D-5-5-5-5-5-5-5-5---|  x2
A-5-5-5-5-5-5-5-5---|
E-3-3-3-3-3-3-3-3---|

Outro
E-------------------|
B-------------------|
G-------------------|
D-7-7-7-7-7-7-7-5---|  x4
A-7-7-7-7-7-7-7-5---|
E-5-5-5-5-5-5-5-3---|
Suggest correction
Give kudos to tab author, rate the tab!
1 2 3 4 5
comments
print report bad tab
guest
You may want to rate the tab now too:
select rating
Wanna post a correction for this tab? Suggest correction