Oops, an error
Loading. Please wait.

Ill Never Find Another You Chords

version 1
version 1

Whole song

83,446 views 279 this week
6 commentsread comments
1 2 3 4 5
x 17
add to favorites
launch autoscroll
font size
0
reset
transpose
0
reset
simplify chords
display chords
guitar tuner
Autoscroll
slow
fast
+/-
esc
set tempo
stop
Strumming
There is no strumming pattern for this song yet. and get +5 IQ
I'll Never Find Another You by Sonny James
Tab by Sergio Tamayo Zamora

I made this tab in C key, sound very fine. I hope you enjoy

[Intro]

   C       F     G7

e|----5-8-6-5-----|
B|5-----------7---|
G|--------------5-|
D|----------------|
A|----------------|
E|----------------|
           C      F      G7

e|-----------5-8-6-5------|
B|------4-5----------7----|
G|5--7------------------5-|
D|------------------------|
A|------------------------|
E|------------------------|


           C            F           D7              G7

There's a new world somewhere they call the promise land

         C           Am       F                G7

And I'll be there someday if you will hold my hand

        Am            F             C     F      C

I still need you there beside me no matter what I do

F     C                 G7           C

For I know I'll never find another you


           F     G7

e|----5-8-6-5-----|
B|5-----------7---|
G|--------------5-|
D|----------------|
A|----------------|
E|----------------|

         C       F              D7             G7

There is always  someone for each of us they say

            C     Am      F            G7

And you'll be my someone forever and a day

         Am              F           C        F      C

I could search the whole world over until my life is through

F     C                 G7           C

But I know I'll never find another you


           F     G7

e|----5-8-6-5-----|
B|5-----------7---|
G|--------------5-|
D|----------------|
A|----------------|
E|----------------|

     Am           F         C    F     C

It's a long long journey so stay by my side

       Am                 F                 C    F     G7

when I walk through the storm you'll be my guide be my guide

          C       F            D7               G7

If they gave me a fortune my treasure would be small

         C          Am            F             G7

I could lose it all tomorrow and never mind at all

       Am                   F          C          F      C

But if I should lose your love dear I don't know what I'd do

F     C                 G7           C    F   G7

For I know I'll never find another you

         C   F  G7

Another you

         C   F   C

Another you
Suggest correction
comments
print report bad tab
6 comments total. Showing first comments.
0 reply
Mistermark 346 Sep 16, 2009 09:56 AM

Intro:

-----------------|-------------
-----3-6-4-3-----|-------------
--3----------5---|--------2----
---------------3-|--3-3-5------
-----------------|-------------
-----------------|-------------

+1 reply
timx9 10 Jun 19, 2014 09:21 PM

Lack of accuracy.

+1 reply
benediktv 10 Dec 04, 2014 08:57 AM

Lack of accuracy. many mistakes, especially the second line of bridge is completely wrong, there are other mistakes in the verses, needs refinement.

guest
You may want to rate the tab now too:
select rating
Wanna post a correction for this tab? Suggest correction