Oops, an error
Loading. Please wait.

Apache Tab

version 1
version 1
54,519 views 21 this week
3 commentsread comments
1 2 3 4 5
accurate
x 7
add to favorites
launch autoscroll
font size
0
reset
how to read this tab
guitar tuner
Tab Pro tools
  • play this tab
  • loop segment
  • change instrument
  • show fretboard
  • metronome
×
Best way to learn
"Apache"
Autoscroll
slow
fast
+/-
esc
set tempo
stop
-------------------5-3-0-----------------------5-3-0----
-----1-3bn----1-3----------------1-3bn----1-3-----------
---2---------------------------2------------------------
--------------------------------------------------------
--------------------------------------------------------
--------------------------------------------------------

--------------------------------------------------------
--------------------------------------------------------
-----2-2---2--------------------2-2---2-----------------
---2-----2---4-4-2-0-2--------2-----2---4-4-2-0-2-------
--------------------------------------------------------
--------------------------------------------------------

This is my first tab and is in standard tuning.

(bn = bend note)
comments
print report bad tab
3 comments total.
0 reply
HorizonPRINCE23 wrote on April 14 2014, 07:28 am

A bit wrong !

0 reply
HorizonPRINCE23 wrote on April 14 2014, 07:32 am

-------------------5-3-0-----------------------5-3-0----
-----1-3bn-------1--------------1-3bn----1------------
---2-----------2--------------2---------2-----------------
--------------------------------------------------------
--------------------------------------------------------
--------------------------------------------------------

--------------------------------------------------------
--------------------------------------------------------
-----2----2--------------------2----2-----------------
--------2---4-2-0-2---------------2--4-2-0-2-------
--------------------------------------------------------
--------------------------------------------------------

0 reply
lachiemcg11105 wrote on December 26 2015, 05:15 am

Thx HorizonPRINCE23 thought it sounded wrong

I want to post or [tab]
guest
You may want to rate the tab now too:
select rating
Please do not post tabs as comments. Select "correction" instead!