Oops, an error
Loading. Please wait.
We have an official Apache tab made by UG professional guitarists. Check out the tab »
×

Apache intro tab

56,680 views 114 this week
3 commentsread comments
1 2 3 4 5
x 10
add to favorites
×
Save as Personal and add changes to this tab that will be seen only by you. Learn more ›
×
You can save this tab as Personal to edit and correct it or add notes. All changes will be seen only by you. Learn more »
launch autoscroll
font size
0
reset
how to read this tab
guitar tuner
backing track
0:00
0:00
edit
Autoscroll
slow
fast
+/-
esc
set tempo
stop
Author
Unregistered
[Intro]
e|-------------------5-3-0---|-------------------5-3-0----|
B|-----1-3b-----1-3----------|-----1-3b-----1-3-----------|
G|---2-----------------------|---2------------------------|
D|---------------------------|----------------------------|
A|---------------------------|----------------------------|
E|---------------------------|----------------------------|

e|-------------------------|-----------------------------|
B|-------------------------|-----------------------------|
G|-----2-2---2-------------|-----2-2---2-----------------|
D|---2-----2---4-4-2-0-2---|---2-----2---4-4-2-0-2-------|
A|-------------------------|-----------------------------|
E|-------------------------|-----------------------------|

************************************

| b  Bend

************************************

            
            
Suggest correction
Creating personal tab
Creating personal tab
You can edit any tab online and save it as your Personal.

You can edit, replace or remove any tab part or add personal notes – all changes will be seen only by you.

Personal tabs can be accessed anytime from any device, even offline.
Learn more »
comments
print report bad tab
3 comments total.
0 reply
HorizonPRINCE23 10 Apr 14, 2014 03:28 AM

A bit wrong !

0 reply
HorizonPRINCE23 10 Apr 14, 2014 03:32 AM

-------------------5-3-0-----------------------5-3-0----
-----1-3bn-------1--------------1-3bn----1------------
---2-----------2--------------2---------2-----------------
--------------------------------------------------------
--------------------------------------------------------
--------------------------------------------------------

--------------------------------------------------------
--------------------------------------------------------
-----2----2--------------------2----2-----------------
--------2---4-2-0-2---------------2--4-2-0-2-------
--------------------------------------------------------
--------------------------------------------------------

0 reply
lachiemcg11105 10 Dec 26, 2015 12:15 AM

Thx HorizonPRINCE23 thought it sounded wrong

guest
Wanna post a correction for this tab? Suggest correction