Oops, an error
Loading. Please wait.

Apache Bass Tab

version 2
version 2
5,787 views 24 this week
no commentswrite comment
1 2 3 4 5
please rate
add to favorites
launch autoscroll
font size
0
reset
guitar tuner
Tab Pro tools
  • play this tab
  • loop segment
  • change instrument
  • show fretboard
  • metronome
Autoscroll
slow
fast
+/-
esc
set tempo
stop
Contributor
Difficulty
intermediate
                               APACHE (Bassline)

First two bars drums only. This is how I play it and is in my view, pretty close but can 
improved. If anyone can improve and post that would be good.

Intro:
G|-----------------|-----------------|------------------|------------------|
D|-----------------|-----------------|------------------|------------------|
A|-----------------|-5-5-5-5-5-5-5-5-|------------------|-5-5-5-5-5-5-5-5--|
E|-5-5-5-5-5-5-5-5-|-----------------|--5-5-5-5-5-5-5-5-|------------------|

Verse:
|--------------------------------------|
|-------7------7\10-9-7-7--------------|
|-----7---5--5------------7----------7-|
|-5-5-----------------------8-5--5-8---|

|----------------------------------------|
|-------7------7\10-9-7-7----------------|
|-----7---5--5------------7----------7---|
|-5-5-----------------------8-5--5-8---8-|

|-------7------7\10-9-7-7------------|
|-----7---5--5------------7----------|
|-5-5-----------------------8-5--5-8-|
|------------------------------------|

|--------------------------------------|
|-------7------7\10-9-7-7--------------|
|-----7---5--5------------7----------7-|
|-5-5-----------------------8-5--5-8---|

Chorus (X 2)
|-----------------------------------------|
|-----------------------------------------|
|---8---8---8---8---7----7--------------7-|
|-8---8---8---8------------5----5-5-7-8---|

Bridge
|-------------------------------------------------------------------------|
|-------------------------------------------------------------------------|
|------0-3-----3-5-5\7-5-3---------0-3---3----------0-3-----3-5\7-5-3-----|
|-1--1-----3--3-----------5----1--1----3-------1--1-----3--3---------5----|

Chorus (X 2)
|-----------------------------------------|
|-----------------------------------------|
|---8---8---8---8---7----7--------------7-|
|-8---8---8---8------------5----5-5-7-8---|

Verse:
|--------------------------------------|
|-------7------7\10-9-7-7--------------|
|-----7---5--5------------7----------7-|
|-5-5-----------------------8-5--5-8---|

|----------------------------------------|
|-------7------7\10-9-7-7----------------|
|-----7---5--5------------7----------7---|
|-5-5-----------------------8-5--5-8---8-|

|-------7------7\10-9-7-7------------|
|-----7---5--5------------7----------|
|-5-5-----------------------8-5--5-8-|
|------------------------------------|

|--------------------------------------|
|-------7------7\10-9-7-7--------------|
|-----7---5--5------------7----------7-|
|-5-5-----------------------8-5--5-8---|

Bridge
|-------------------------------------------------------------------------|
|-------------------------------------------------------------------------|
|------0-3-----3-5-5\7-5-3---------0-3---3----------0-3-----3-5\7-5-3-----|
|-1--1-----3--3-----------5----1--1----3-------1--1-----3--3---------5----|

Chorus (X 2)
|-----------------------------------------|
|-----------------------------------------|
|---8---8---8---8---7----7--------------7-|
|-8---8---8---8------------5----5-5-7-8---|

Outro (Repeat to fade)
|-----------------|-----------------|
|-----------------|-----------------|
|-----------------|-5-5-5-5-5-5-5-5-|
|-5-5-5-5-5-5-5-5-|-----------------|
comments
We did not receive enough feedback on this tab! Please rate:
print report bad tab
1 2 3 4 5
I want to post or [tab]
guest
You may want to rate the tab now too:
select rating
Please do not post tabs as comments. Select "correction" instead!