Oops, an error
Loading. Please wait.

Atlantis bass

version 2
version 2

Whole song

Interactive

2,199 views 12 this week
no commentswrite comment
1 2 3 4 5
2 more votes to show rating
add to favorites
×
Save as Personal and add changes to this tab that will be seen only by you. Learn more ›
×
You can save this tab as Personal to edit and correct it or add notes. All changes will be seen only by you. Learn more »
launch autoscroll
font size
0
reset
guitar tuner
backing track
0:00
0:00
edit
Autoscroll
slow
fast
+/-
esc
set tempo
stop
Author
Atlantis
The Shadows
Written by Jerry Lordan; released as a single with "I Want You To Want Me" 
as the B-side

Refrain:
G|------- ------- ------- -------|------- ------- ------- -------|
D|3------------------------------|----------------3-------3------|
A|----------------3--------------|1------------------------------|
E|-------------------------------|-------------------------------|



G|------- ------- ------- -------|------- ------- ------- -------|
D|5-----------5---5-------5------|-------------------------------|
A|-------------------------------|3-----------3---3--------------|
E|-------------------------------|-------------------------------|



G|------- ------- ------- -------|------- ------- ------- -------|
D|3-----------3------------------|----------------3-------3------|
A|----------------3-------3------|1------------------------------|
E|-------------------------------|-------------------------------|



G|------- ------- ------- -------|------- ------- ------- -------|
D|1---------------1-------1------|-------------------------------|
A|-------------------------------|3-----------3---3-------3------|
E|-------------------------------|-------------------------------|


Verse:
G|------- ------- ------- -------|------- ------- ------- -------|
D|-------------------------------|-------------------------------|
A|-------------------------------|-------------------------------|
E|1-----------1---1---1----------|1-----------1---1-------1------|



G|------- ------- ------- -------|------- ------- ------- -------|
D|-------------------------------|-------------------------------|
A|3-----------3---3-------3---3--|3-----------3---3-------3------|
E|-------------------------------|-------------------------------|



G|------- ------- ------- -------|------- ------- ------- -------|
D|-------------------------------|3-----------3---3-------3------|
A|1---------------1-------1------|-------------------------------|
E|-------------------------------|-------------------------------|



G|------- ------- ------- -------|------- ------- ------- -------|
D|-------------------------------|-------------------------------|
A|3-----------3---3-------3------|3-----------3---3-------3------|
E|-------------------------------|-------------------------------|



G|------- ------- ------- -------|------- ------- ------- -------|
D|-------------------------------|-------------------------------|
A|-------------------------------|5---------------5-------5------|
E|5---------------5-------5------|-------------------------------|



G|------- ------- ------- -------|------- ------- ------- -------|
D|-------------------------------|5-----------5---5-------5------|
A|-------------------------------|-------------------------------|
E|7---------------7---7---7------|-------------------------------|



G|------- ------- ------- -------|------- ------- ------- -------|
D|-------------------------------|-------------------------------|
A|3-----------3---3-------3------|-------------------------------|
E|-------------------------------|5---------------5-------5------|



G|------- ------- ------- -------|------- ------- ------- -------|
D|-------------------------------|5---------------5-------5------|
A|-------------------------------|-------------------------------|
E|6---------------6-------6------|-------------------------------|



G|------- ------- ------- -------|------- ------- ------- -------|
D|-------------------------------|-------------------------------|
A|3-----------3---3-------3------|3-----------3---3-------3------|
E|-------------------------------|-------------------------------|


Verse:
G|------- ------- ------- -------|------- ------- ------- -------|
D|-------------------------------|-------------------------------|
A|-------------------------------|-------------------------------|
E|1---------------1---1----------|1---------------1-------1------|
  ooooooooooooooooooooooooooooooooooooooooooooooooooooooooooooooo


G|------- ------- ------- -------|------- ------- ------- -------|
D|-------------------------------|-------------------------------|
A|3---------------3-------3------|3---------------3---3---3------|
E|-------------------------------|-------------------------------|
  ooooooooooooooooooooooooooooooooooooooooooooooooooooooooo


G|------- ------- ------- -------|------- ------- ------- -------|
D|-------------------------------|3-----------3---3-------3------|
A|1-----------1---1-------1------|-------------------------------|
E|-------------------------------|-------------------------------|
  ooooooooooooooooooooooooooooooooooooooooooooooooooooooooooooooo


G|------- ------- ------- -------|------- ------- ------- -------|
D|-------------------------------|-------------------------------|
A|3-----------3---3-------3------|3-----------3---3-------3------|
E|-------------------------------|-------------------------------|
  ooooooooooooooooooooooooooooooooooooooooooooooooooooooooo


G|------- ------- ------- -------|------- ------- ------- -------|
D|-------------------------------|-------------------------------|
A|-------------------------------|5---------------5-------5------|
E|5-------5----------------------|-------------------------------|



G|------- ------- ------- -------|------- ------- ------- -------|
D|------------------------4------|5---------------5-------5------|
A|----------------5--------------|-------------------------------|
E|7------------------------------|-------------------------------|



G|------- ------- ------- -------|------- ------- ------- -------|
D|-------------------------------|-------------------------------|
A|3-----------3---3-------3------|-------------------------------|
E|-------------------------------|5---------------5-------5------|



G|------- ------- ------- -------|------- ------- ------- -------|
D|-------------------------------|5---------------5-------5------|
A|-------------------------------|-------------------------------|
E|6-----------6---6---6---6------|-------------------------------|



G|------- ------- ------- -------|------- ------- ------- -------|
D|-------------------------------|-------------------------------|
A|3-----------3---3-------3------|3-----------3---3-------3------|
E|-------------------------------|-------------------------------|


Refrain:
G|------- ------- ------- -------|------- ------- ------- -------|
D|3------------------------------|----------------3-------3------|
A|----------------3--------------|1------------------------------|
E|-------------------------------|-------------------------------|



G|------- ------- ------- -------|------- ------- ------- -------|
D|5---------------5-------5------|-------------------------------|
A|-------------------------------|3-----------3---3-------3------|
E|-------------------------------|-------------------------------|



G|------- ------- ------- -------|------- ------- ------- -------|
D|3-------3----------------------|----------------3-------3------|
A|----------------3-------3------|1------------------------------|
E|-------------------------------|-------------------------------|



G|------- ------- ------- -------|------- ------- ------- -------|
D|1---------------1-------1------|-------------------------------|
A|-------------------------------|3-----------3---3---3---3------|
E|-------------------------------|-------------------------------|


Verse:
G|------- ------- ------- -------|------- ------- ------- -------|
D|-------------------------------|-------------------------------|
A|-------------------------------|-------------------------------|
E|1-----------1---1---1----------|1-----------1-----------1------|
  ooooooooooooooooooooooooooooooooooooooooooooooooooooooooooooooo


G|------- ------- ------- -------|------- ------- ------- -------|
D|-------------------------------|-------------------------------|
A|3-----------3---3-------3------|3-----------3---3-------3------|
E|-------------------------------|-------------------------------|
  ooooooooooooooooooooooooooooooooooooooooooooooooooooooooo


G|------- ------- ------- -------|------- ------- ------- -------|
D|-------------------------------|-------------------------------|
A|1-----------1-----------1------|-------------------------------|
E|-------------------------------|1-----------1-----------1------|
  ooooooooooooooooooooooooooooooooooooooooooooooooooooooooooooooo


G|------- ------- ------- -------|------- ------- ------- -------|
D|-------------------------------|-------------------------------|
A|3-----------3-----------3------|3-----------3---3-------3------|
E|-------------------------------|-------------------------------|
  ooooooooooooooooooooooooooooooooooooooooooooooooooooooooo


G|------- ------- ------- -------|------- ------- ------- -------|
D|-------------------------------|-------------------------------|
A|-------------------------------|5---------------5-------5------|
E|5-------5----------------------|-------------------------------|
                                          oo  -   oo  -   o - o


G|------- ------- ------- -------|------- ------- ------- -------|
D|------------------------4------|5---------------5-------5------|
A|----------------5--------------|-------------------------------|
E|7------------------------------|-------------------------------|
  ooooooooooooooooooooooooo               oo  -   oo  -   o - o


G|------- ------- ------- -------|------- ------- ------- -------|
D|-------------------------------|-------------------------------|
A|3-----------3---3-------3------|-------------------------------|
E|-------------------------------|5-----------5---5-------5------|
  ooooooooooooooooooooooooo


G|------- ------- ------- -------|------- ------- ------- -------|
D|-------------------------------|5-----------5---5-------5------|
A|-------------------------------|-------------------------------|
E|6-----------6---6-------6------|-------------------------------|



G|------- ------- ------- -------|------- ------- ------- -------|
D|-------------------------------|-------------------------------|
A|3---------------3-------3------|3------------------------------|
E|-------------------------------|-------------------------------|


Refrain:
G|------- ------- ------- -------|------- ------- ------- -------|
D|3------------------------------|----------------3-------3------|
A|----------------3--------------|1------------------------------|
E|-------------------------------|-------------------------------|



G|------- ------- ------- -------|------- ------- ------- -------|
D|5-----------5---5-------5------|-------------------------------|
A|-------------------------------|3-----------3---3--------------|
E|-------------------------------|-------------------------------|



G|------- ------- ------- -------|------- ------- ------- -------|
D|3------------------------------|----------------3-------3------|
A|----------------3--------------|1------------------------------|
E|-------------------------------|-------------------------------|



G|------- ------- ------- -------|------- ------- 0------ 3------|
D|1---------------1--------------|1------------------------------|
A|-------------------------------|-------------------------------|
E|-------------------------------|-------------------------------|



G|------- ------- ------- -------|------- ------- ------- -------|
D|3-------3----------------------|3-------3----------------------|
A|--------------------3----------|--------------------3----------|
E|-------------------------------|-------------------------------|


Outro:
G|------- ------- ------- -------|------- ------- 0------ 3------|
D|1---------------1--------------|1------------------------------|
A|-------------------------------|-------------------------------|
E|-------------------------------|-------------------------------|



G|------- ------- ------- -------|------- ------- ------- -------|
D|3-------3----------------------|3-------3----------------------|
A|--------------------3-------3--|--------------------3-------3--|
E|-------------------------------|-------------------------------|



G|------- ------- ------- -------|------- ------- ------- -------|
D|3-------3----------------------|-------------------------------|
A|--------------------3-------3--|-------------------------------|
E|-------------------------------|1-------1----------------------|

Please e-mail me for any corrections, or write a comment.
Suggest correction
Creating personal tab
Creating personal tab
You can edit any tab online and save it as your Personal.

You can edit, replace or remove any tab part or add personal notes – all changes will be seen only by you.

Personal tabs can be accessed anytime from any device, even offline.
Learn more »
Give kudos to tab author, rate the tab!
1 2 3 4 5
comments
print report bad tab
guest
You may want to rate the tab now too:
select rating
Wanna post a correction for this tab? Suggest correction