Oops, an error
Loading. Please wait.

Blue Shadows Bass Tab

1,270 views 3 this week
no commentswrite comment
1 2 3 4 5
please rate
add to favorites
launch autoscroll
font size
0
reset
guitar tuner
Tab Pro tools
  • play this tab
  • loop segment
  • change instrument
  • show fretboard
  • metronome
×
Best way to learn
"Blue Shadows"
Autoscroll
slow
fast
+/-
esc
set tempo
stop
Contributor
Blue Shadows
The Shadows
Written by Brian Bennett, Brian Locking, Hank Marvin and Bruce Welch; 
released on the album "Dance With The Shadows".

Intro:
G|------ ------ ------ ------|------ ------ ------ ------|
D|7---7--5---4---------------|---------------------------|
A|--------------7------------|-----------5-/7---5--------|
E|------------------5--8---5-|----5--8-------------8---5-|



G|------ ------ ------ ------|
D|---------------------4-----|
A|----5--6---7------7------7-|
E|---------------------------|


Verse:
G|------ ------ ------ ------|------ ------ ------ ------|
D|---------------------4-----|---------------------4-----|
A|------------------7------7-|------------------7------7-|
E|5--------------------------|5--------------------------|



G|------ ------ ------ ------|------ ------ ------ 4-----|
D|---------------------4-----|5---4-------------7------7-|
A|------------------7------7-|-------7---5--4------------|
E|5--------------------------|---------------------------|



G|------ ------ ------ 4-----|------ ------ ------ ------|
D|------------------7------7-|---------------------4-----|
A|5--------------------------|5-----------------7------7-|
E|---------------------------|---------------------------|



G|------ ------ ------ ------|------ ------ ------ ------|
D|---------------------4-----|---------------------------|
A|------------------7------7-|---------------------------|
E|5--------------------------|5-------------5------5-----|



G|------ ------ ------ ------|------ ------ ------ ------|
D|---------------------------|---------------------------|
A|---------------------------|5-------------5------5-----|
E|0-------------0------0-----|---------------------------|



G|------ ------ ------ ------|------ ------ ------ ------|
D|---------------------------|---------------------4-----|
A|---------------------------|----5--6---7------7------7-|
E|5-------------5------5-----|---------------------------|


Verse:
G|------ ------ ------ ------|------ ------ ------ ------|
D|---------------------4-----|---------------------4-----|
A|------------------7------7-|------------------7------7-|
E|5--------------------------|5--------------------------|



G|------ ------ ------ ------|------ ------ ------ 4-----|
D|---------------------4-----|5---4-------------7------7-|
A|------------------7------7-|-------7---5--4------------|
E|5--------------------------|---------------------------|



G|------ ------ ------ 4-----|------ ------ ------ ------|
D|------------------7------7-|---------------------4-----|
A|5--------------------------|5-----------------7------7-|
E|---------------------------|---------------------------|



G|------ ------ ------ ------|------ ------ ------ ------|
D|---------------------4-----|---------------------4-----|
A|------------------7------7-|------------------7------7-|
E|5--------------------------|5--------------------------|



G|------ ------ ------ ------|------ ------ ------ ------|
D|---------------------------|---------------------------|
A|---------------------------|5------5---5--5---5--5-----|
E|0-------------0------0-----|---------------------------|



G|------ ------ ------ ------|------ ------ ------ ------|
D|---------------------7-----|---------------------------|
A|-------7-------------------|----5--6---7---------------|
E|5-------------5------------|---------------------------|


Bridge:
G|------ ------ ------ ------|------ ------ ------ ------|
D|---------------------------|---------------------------|
A|---------------------------|---------------------------|
E|5--------------------------|5--------------------------|



G|------ ------ ------ ------|------ ------ ------ ------|
D|---------------------------|---------------------------|
A|---------------------------|---------------------------|
E|5--------------------------|5------5------5------5-----|



G|------ ------ ------ ------|------ ------ ------ ------|
D|---------------------------|---------------------------|
A|5----------4--5------------|5-------------5------5-----|
E|-------5-------------5-----|-------5-------------------|



G|------ ------ ------ ------|------ ------ ------ ------|
D|---------------------------|---------------------------|
A|---------------------------|---------------------------|
E|5------0------5------0-----|5------0------5------5-----|



G|------ ------ ------ ------|------ ------ ------ ------|
D|---------------------------|7---7--5---4---------------|
A|---------------------------|--------------7------------|
E|0------0------0------0-----|------------------5--8---5-|



G|------ ------ ------ ------|------ ------ ------ ------|
D|---------------------------|---------------------4-----|
A|-----------5-/7---5--------|----5--6---7-------------7-|
E|----5--8-------------8---5-|---------------------------|


Verse:
G|------ ------ ------ ------|------ ------ ------ ------|
D|---------------------------|---------------------------|
A|---------------------------|---------------------------|
E|5------0------5------0-----|5------0------5------0-----|



G|------ ------ ------ ------|------ ------ ------ ------|
D|---------------------------|---------------------------|
A|---------------------------|---------------------------|
E|5------0------5------0-----|5------5------5------5-----|



G|------ ------ ------ ------|------ ------ ------ ------|
D|---------------------------|---------------------------|
A|5-------------5------------|5-------------5------5-----|
E|-------5-------------5-----|-------5-------------------|



G|------ ------ ------ ------|------ ------ ------ ------|
D|---------------------------|---------------------------|
A|---------------------------|---------------------------|
E|5------0------5------0-----|5------0------5------5-----|



G|------ ------ ------ ------|------ ------ ------ ------|
D|---------------------------|---------------------------|
A|---------------------------|5------5------5------5---5-|
E|0-------------0------------|---------------------------|



G|------ ------ ------ ------|------ ------ ------ ------|
D|---------------------------|---------------------4-----|
A|---------------------------|----5--6---7------7------7-|
E|5------0------5------5-----|---------------------------|


Verse:
G|------ ------ ------ ------|------ ------ ------ ------|
D|---------------------4-----|---------------------4-----|
A|------------------7------7-|------------------7------7-|
E|5------0------5------------|5------0------5------------|



G|------ ------ ------ ------|------ ------ ------ 4-----|
D|---------------------4-----|5---4-------------7------7-|
A|------------------7------7-|-------7---5--4------------|
E|5------0------5------------|---------------------------|



G|------ ------ ------ 4-----|------ ------ ------ ------|
D|------------------7------7-|---------------------4-----|
A|5-------------5------------|5-------------5---7------7-|
E|-------5-------------------|-------5-------------------|



G|------ ------ ------ ------|------ ------ ------ ------|
D|---------------------4-----|---------------------------|
A|------------------7------7-|---------------------------|
E|5------0------5------------|5------0------5------5-5-5-|



G|------ ------ ------ ------|------ ------ ------ ------|
D|---------------------------|7---7--5---4---------------|
A|---------------------------|--------------7------------|
E|0-------------0------0-----|------------------5--8---5-|



G|------ ------ ------ ------|------ ------ ------ ------|
D|---------------------------|---------------------------|
A|-----------5-/7---5--------|---------------------------|
E|----5--8-------------8---5-|-------6---5---------------|


Please e-mail me for any corrections, or write a comment.
comments
We did not receive enough feedback on this tab! Please rate:
print report bad tab
1 2 3 4 5
I want to post or [tab]
guest
You may want to rate the tab now too:
select rating
Please do not post tabs as comments. Select "correction" instead!