Oops, an error
Loading. Please wait.

Chattanooga Choo Choo bass

version 1
version 1

Whole song

Interactive

3,514 views 1 this week
no commentswrite comment
1 2 3 4 5
2 more votes to show rating
add to favorites
×
Save as Personal and add changes to this tab that will be seen only by you. Learn more ›
×
You can save this tab as Personal to edit and correct it or add notes. All changes will be seen only by you. Learn more »
launch autoscroll
font size
0
reset
guitar tuner
edit
Autoscroll
slow
fast
+/-
esc
set tempo
stop
Author
Chattanooga Choo Choo
The Shadows
Written by Mack Gordon and Harry Warren; released on the album "Dance With 
The Shadows"

Intro:
G|------- ------- ------- -------|------- ------- ------- -------|
D|-------------------------------|-------------------------------|
A|-------------------------------|-------------------------------|
E|3---------------3--------------|3-----------3------------------|



G|------- ------- ------- -------|------- ------- ------- -------|
D|-------------------------------|-------------------------------|
A|-------------------------------|-------------------------------|
E|3---------------3--------------|3-----------3------------------|



G|------- ------- ------- -------|------- ------- ------- -------|
D|-------------------------------|-------------------------------|
A|-------------------------------|----5---5---5---5---5---3------|
E|3-----------3-----------3------|----------------------------5--|


Verse:
G|------- ------- ------- -------|------- ------- ------- -------|
D|-------------------------------|5---5-------5---------------4--|
A|----------------5---5-------5--|----------------5---5----------|
E|3---3--------------------------|-------------------------------|



G|------- ------- ------- -------|------- ------- ------- -------|
D|5---5-------5------------------|5---5-------5------------------|
A|----------------5---5-------5--|----------------5---5----------|
E|-------------------------------|-------------------------------|



G|------- ------- ------- -------|------- ------- ------- -------|
D|7---7-------7------------------|-------------------------------|
A|----------------5---5----------|----------------5---5----------|
E|-------------------------------|5---5-------5------------------|



G|------- ------- ------- -------|----4-- 5---6-- 7------ -------|
D|5---5-------5------------------|7------------------------------|
A|----------------7---7----------|------------------------5------|
E|-------------------------------|-------------------------------|


Verse:
G|------- ------- ------- -------|------- ------- ------- -------|
D|-------------------------------|-------------------------------|
A|----------------5---5-------5--|----------------5---5-------5--|
E|3---3--------------------------|3---3--------------------------|



G|------- ------- ------- -------|------- ------- ------- -------|
D|-------------------------------|-------------------------------|
A|----------------5---5-------5--|----------------5---5----------|
E|3---3--------------------------|3---3--------------------------|



G|------- ------- ------- -------|------- ------- ------- -------|
D|-------------------------------|-------------------------------|
A|----------------5---5-------7--|----------------5---5----------|
E|5---5--------------------------|5---5--------------------------|



G|------- ------- ------- -------|------- ------- ------- -------|
D|5---5-------5---------------5--|----5---4---5---3--------------|
A|----------------5---5----------|------------------------5------|
E|-------------------------------|-------------------------------|


Bridge:
G|------- ------- ------- -------|------- ------- ------- -------|
D|----------------5---5-------5--|------------5------------------|
A|3---3--------------------------|3---3-------------------0---2--|
E|-------------------------------|--------------------3----------|



G|------- ------- ------- -------|------- ------- ------- -------|
D|----------------5---5----------|------------5-----------0---2--|
A|3---3--------------------------|3---3---------------3----------|
E|----------------------------3--|-------------------------------|



G|------- ------- ------- -------|------- ------- ------- -------|
D|3---3-------3---4---4----------|5---5-------6---7---7----------|
A|----------------------------5--|----------------------------5--|
E|-------------------------------|-------------------------------|



G|------- ------- ------- -------|------- ------- ------- -------|
D|-------------------------------|--------4-h-5---5--------------|
A|6---6---6---6---6---6---6---6--|6---6--------------------------|
E|-------------------------------|------------------------3------|



G|------- ------- ------- -------|------- ------- ------- -------|
D|-------------------------------|------------5------------------|
A|3---3--------------------------|3---3-------------------0---2--|
E|----------------3---3-------3--|--------------------3----------|



G|------- ------- ------- -------|------- ------- ------- -------|
D|----------------5---5-------5--|------------5-----------0---2--|
A|3---3--------------------------|3---3---------------3----------|
E|-------------------------------|-------------------------------|



G|------- ------- ------- -------|------- ------- ------- -------|
D|3---3-------3---4---4----------|5---5-------6---7---7----------|
A|-------------------------------|-------------------------------|
E|----------------------------3--|----------------------------5--|



G|------- ------- ------- -------|------- ------- ------- -------|
D|------------------------4------|--------5----------------------|
A|5-------5-------5-----------5--|----------------3-------5------|
E|-------------------------------|3------------------------------|


Verse:
G|------- ------- ------- -------|------- ------- ------- -------|
D|-------------------------------|-------------------------------|
A|----------------5---5-------5--|----------------5---5----------|
E|3---3--------------------------|3---3--------------------------|



G|------- ------- ------- -------|------- ------- ------- -------|
D|-------------------------------|-------------------------------|
A|----------------5---5-------5--|----------------5---5----------|
E|3---3--------------------------|3---3--------------------------|



G|------- ------- ------- -------|------- ------- ------- -------|
D|-------------------------------|-------------------------------|
A|------------7---5---5-------7--|----------------5---5-------5--|
E|5---5--------------------------|5---5-------5------------------|



G|------- ------- ------- -------|----4-- 5---6-- 7---5-- -------|
D|5---5-------5------------------|7------------------------------|
A|----------------7---7----------|------------------------5------|
E|-------------------------------|-------------------------------|


Verse:
G|------- ------- ------- -------|------- ------- ------- -------|
D|-------------------------------|-------------------------------|
A|----------------5---5-------5--|----------------5---5----------|
E|3---3--------------------------|3---3--------------------------|



G|------- ------- ------- -------|------- ------- ------- -------|
D|----------------5---5----------|-------------------------------|
A|3---3--------------------------|6---6-------6---6---6-------4--|
E|-------------------------------|-------------------------------|



G|------- ------- ------- -------|------- ------- ------- -------|
D|-------------------------------|-------------------------------|
A|5---5-----------7---7-------7--|----------------5---5-------5--|
E|-------------------------------|5---5--------------------------|



G|------- ------- ------- -------|------- ------- ------- -------|
D|5---5-------5---------------5--|-------------------------------|
A|----------------5---5----------|-------------------------------|
E|-------------------------------|-------------------------------|


Bridge:
G|------- ------- ------- -------|------- ------- ------- -------|
D|----------------5---5-------5--|------------5------------------|
A|3---3--------------------------|3---3-----------------------2--|
E|-------------------------------|----------------3---3----------|



G|------- ------- ------- -------|------- ------- ------- -------|
D|----------------5---5-------5--|------------5-----------0---2--|
A|3---3--------------------------|3---3---------------3----------|
E|-------------------------------|-------------------------------|



G|------- ------- ------- -------|------- ------- ------- -------|
D|3---3-------3---4---4-------4--|5---5-------6---7---7----------|
A|-------------------------------|----------------------------5--|
E|-------------------------------|-------------------------------|



G|------- ------- ------- -------|------- ------- ------- -------|
D|-------------------------------|--------4-------5--------------|
A|6---6---6---6---6---6---6---6--|6---6--------------------------|
E|-------------------------------|------------------------3------|



G|------- ------- ------- -------|------- ------- ------- -------|
D|-------------------------------|------------5------------------|
A|3---3-------3------------------|3---3-------------------0---2--|
E|----------------3---3-------3--|--------------------3----------|



G|------- ------- ------- -------|------- ------- ------- -------|
D|-------------------------------|------------5-----------0---2--|
A|3---3--------------------------|3---3---------------3----------|
E|----------------3---3-------3--|-------------------------------|



G|------- ------- ------- -------|------- ------- ------- -------|
D|3---3-------3---4---4----------|5---5-----------7---7----------|
A|----------------------------5--|-------------------------------|
E|-------------------------------|-------------------------------|



G|------- ------- ------- -------|------- ------- ------- -------|
D|------------------------4------|--------5----------------------|
A|5---5---5---5---5---5-------5--|----------------3-------5------|
E|-------------------------------|3------------------------------|


Verse:
G|------- ------- ------- -------|------- ------- ------- -------|
D|-------------------------------|-------------------------------|
A|----------------5---5-------5--|----------------5---5----------|
E|3---3--------------------------|3---3--------------------------|



G|------- ------- ------- -------|------- ------- ------- -------|
D|----------------5---5----------|-------------------------------|
A|3---3--------------------------|6---6-------6---6---6-------4--|
E|-------------------------------|-------------------------------|



G|------- ------- ------- -------|------- ------- ------- -------|
D|-------------------------------|----------------------------4--|
A|5---5-------6---7---7----------|------------7---5---5----------|
E|----------------------------5--|5---5--------------------------|



G|------- ------- ------- -------|----4-- 5---6-- 7------ -------|
D|5---5--------------------------|7------------------------------|
A|----------------7---7----------|------------------------5------|
E|-------------------------------|-------------------------------|


Outro:
G|------- ------- ------- -------|------- ------- ------- -------|
D|-------------------------------|-------------------------------|
A|----------------7---7-------7--|----------------5---5----------|
E|3---3--------------------------|5---5--------------------------|



G|------- ------- ------- -------|------- ------- ------- -------|
D|-------------------------------|-------------------------------|
A|-------------------------------|-------------------------------|
E|2-/-3-----------2-/-3----------|-------------------------------|



G|------- ------- ------- -------|------- ------- ------- -------|
D|-------------------------------|-------------------------------|
A|-------------------------------|-------------------------------|
E|-------------------------------|-------------------------------|



G|------- ------- ------- -------|------- ------- ------- -------|
D|-------------------------------|-------------------------------|
A|-------------------------------|-------------------------------|
E|3-----------3------------------|-------------------------------|

Please e-mail me for any corrections, or write a comment.

            
            
Suggest correction
Creating personal tab
Creating personal tab
You can edit any tab online and save it as your Personal.

You can edit, replace or remove any tab part or add personal notes – all changes will be seen only by you.

Personal tabs can be accessed anytime from any device, even offline.
Learn more »
Give kudos to tab author, rate the tab!
1 2 3 4 5
comments
print report bad tab
guest
You may want to rate the tab now too:
select rating
Wanna post a correction for this tab? Suggest correction