Oops, an error
Loading. Please wait.

Dance On Bass Tab

version 2
version 2

Whole song

Interactive

1,757 views 6 this week
no commentswrite comment
1 2 3 4 5
please rate
add to favorites
launch autoscroll
font size
0
reset
guitar tuner
Tab Pro tools
  • play this tab
  • loop segment
  • change instrument
  • show fretboard
  • metronome
×
Best way to learn
"Dance On"
Autoscroll
slow
fast
+/-
esc
set tempo
stop
Contributor
Dance On
The Shadows
Written by Hank Marvin and Bruce Welch; released as a single with "All Day" 
as the B-side

Intro:
G|------- ------- ------- -------|------- ------- ------- -------|
D|-------------------------------|-------------------------------|
A|-------------------------------|------------------------2------|
E|-------------------------------|0---------------4--------------|



G|------- ------- ------- -------|------- ------- ------- -------|
D|-------------------------------|------------------------2------|
A|-------------------------------|0---------------4--------------|
E|0-----------------------0------|-------------------------------|



G|------- ------- ------- -------|------- ------- ------- -------|
D|-------------------------------|-------------------------------|
A|0---0--------------------------|------------------------2------|
E|----------------4-------2------|0---------------4--------------|



G|------- ------- ------- -------|------- ------- ------- -------|
D|-------------------------------|------------------------2------|
A|-------------------------------|0---------------4--------------|
E|0---0-----------2-------4------|-------------------------------|



G|------- ------- ------- -------|------- ------- ------- -------|
D|-------------------------------|-------------------------------|
A|0------------------------------|-------------------------------|
E|-------------------------------|-------------------------------|


Verse:
G|------- ------- ------- -------|------- ------- ------- -------|
D|-------------------------------|-------------------------------|
A|0-----------9---7-------9------|0-----------9---7-------9------|
E|-------------------------------|-------------------------------|



G|------- ------- ------- -------|------- ------- ------- -------|
D|-------------------------------|-------------------------------|
A|0-----------9---7-------9------|0-----------9---7-------9------|
E|-------------------------------|-------------------------------|



G|------- ------- ------- -------|------- ------- ------- -------|
D|-------------------------------|-------------------------------|
A|-------------------------------|-------------------------------|
E|0-----------9---7-------9------|0-----------9---7-------9------|



G|------- ------- ------- -------|------- ------- ------- -------|
D|-------------------------------|-------------------------------|
A|-------------------------------|-------------------------------|
E|0-----------9---7-------9------|0-----------9---7-------9------|



G|------- ------- ------- -------|------- ------- ------- -------|
D|-------------------------------|-------------------------------|
A|-------------------------------|-------------------------------|
E|0-----------9---7-------9------|0-----------9---7-------9------|



G|------- ------- ------- -------|------- ------- ------- -------|
D|-------------------------------|-------------------------------|
A|0-----------9---7-------9------|-------------------------------|
E|-------------------------------|0-----------9---7-------9------|



G|------- ------- ------- -------|------- ------- ------- -------|
D|-------------------------------|-------------------------------|
A|0-----------9---7-------9------|0------------------------------|
E|-------------------------------|-------------------------------|



G|------- ------- ------- -------|
D|-------------------------------|
A|-------------------------------|
E|-------------------------------|


Verse:
G|------- ------- ------- -------|------- ------- ------- -------|
D|-------------------------------|-------------------------------|
A|0-----------9---7-------9------|0-----------9---7-------9------|
E|-------------------------------|-------------------------------|



G|------- ------- ------- -------|------- ------- ------- -------|
D|-------------------------------|-------------------------------|
A|0-----------9---7-------9------|0-----------9---7-------9------|
E|-------------------------------|-------------------------------|



G|------- ------- ------- -------|------- ------- ------- -------|
D|-------------------------------|-------------------------------|
A|-------------------------------|-------------------------------|
E|0-----------9---7-------9------|0-----------9---7-------9------|



G|------- ------- ------- -------|------- ------- ------- -------|
D|-------------------------------|-------------------------------|
A|-------------------------------|-------------------------------|
E|0-----------9---7-------9------|0-----------9---7-------9------|



G|------- ------- ------- -------|------- ------- ------- -------|
D|-------------------------------|-------------------------------|
A|-------------------------------|-------------------------------|
E|0-----------9---7-------9------|0-----------9---7-------9------|



G|------- ------- ------- -------|------- ------- ------- -------|
D|-------------------------------|-------------------------------|
A|0-----------9---7-------9------|0-------0-------2-------4------|
E|-------------------------------|-------------------------------|


Bridge:
G|------- ------- ------- -------|------- ------- ------- -------|
D|----------------7--------------|----------------6-------9------|
A|5-----------------------9------|7------------------------------|
E|-------------------------------|-------------------------------|



G|------- ------- ------- -------|------- ------- ------- -------|
D|7------------------------------|-------------------------------|
A|----------------7--------------|7-----------------------4------|
E|------------------------9------|--------5-------7--------------|



G|------- ------- ------- -------|------- ------- ------- -------|
D|----------------7--------------|-------------------------------|
A|5-----------------------9------|7------------------------------|
E|-------------------------------|----------------9-------9------|



G|------- ------- ------- -------|------- ------- ------- -------|
D|-------------------------------|-------------------------------|
A|----------------9--------------|7---------------7--------------|
E|7------------------------------|-------------------------------|



G|------- ------- ------- -------|------- ------- ------- -------|
D|-------------------------------|-------------------------------|
A|7------------------------------|5-----------4---2-------0------|
E|--------0-------2-------5------|-------------------------------|


Verse:
G|------- ------- ------- -------|------- ------- ------- -------|
D|-------------------------------|-------------------------------|
A|0-----------9---7-------9------|0-----------9---7-------9------|
E|-------------------------------|-------------------------------|



G|------- ------- ------- -------|------- ------- ------- -------|
D|-------------------------------|-------------------------------|
A|0-----------9---7-------9------|0-----------9---7-------9------|
E|-------------------------------|-------------------------------|



G|------- ------- ------- -------|------- ------- ------- -------|
D|-------------------------------|-------------------------------|
A|-------------------------------|-------------------------------|
E|0-----------9---7-------9------|0-----------9---7-------9------|



G|------- ------- ------- -------|------- ------- ------- -------|
D|-------------------------------|-------------------------------|
A|-------------------------------|-------------------------------|
E|0-----------9---7-------9------|0-----------9---7-------9------|



G|------- ------- ------- -------|------- ------- ------- -------|
D|-------------------------------|-------------------------------|
A|-------------------------------|-------------------------------|
E|0-----------9---7-------9------|0-----------9---7-------9------|



G|------- ------- ------- -------|------- ------- ------- -------|
D|-------------------------------|-------------------------------|
A|0-----------9---7-------9------|-------------------------------|
E|-------------------------------|0-----------9---7-------9------|



G|------- ------- ------- -------|------- ------- ------- -------|
D|-------------------------------|-------------------------------|
A|0-----------9---7-------9------|0---0--------------------------|
E|-------------------------------|----------------4-------2------|


Re-intro:
G|------- ------- ------- -------|------- ------- ------- -------|
D|-------------------------------|-------------------------------|
A|------------------------2------|-------------------------------|
E|0---------------4--------------|0---0-----------2-------4------|



G|------- ------- ------- -------|------- ------- ------- -------|
D|------------------------2------|-------------------------------|
A|0---------------4--------------|0---0--------------------------|
E|-------------------------------|----------------4-------2------|



G|------- ------- ------- -------|------- ------- ------- -------|
D|-------------------------------|-------------------------------|
A|------------------------2------|-------------------------------|
E|0---------------4--------------|0---0-----------2-------4------|



G|------- ------- ------- -------|------- ------- ------- -------|
D|------------------------2------|-------------------------------|
A|0---------------4--------------|0-------0-------2-------4------|
E|-------------------------------|-------------------------------|


Bridge:
G|------- ------- ------- -------|------- ------- ------- -------|
D|----------------7--------------|----------------6-------9------|
A|5-----------------------9------|7------------------------------|
E|-------------------------------|-------------------------------|



G|------- ------- ------- -------|------- ------- ------- -------|
D|7------------------------------|-------------------------------|
A|----------------7--------------|7-----------------------4------|
E|------------------------9------|--------5-------7--------------|



G|------- ------- ------- -------|------- ------- ------- -------|
D|----------------7--------------|-------------------------------|
A|5-----------------------9------|7------------------------------|
E|-------------------------------|----------------9-------9------|



G|------- ------- ------- -------|------- ------- ------- -------|
D|-------------------------------|-------------------------------|
A|----------------9--------------|7---------------7--------------|
E|7------------------------------|-------------------------------|



G|------- ------- ------- -------|------- ------- ------- -------|
D|-------------------------------|-------------------------------|
A|7------------------------------|-------------------------------|
E|-------------------------------|-------------------------------|


Verse:
G|------- ------- ------- -------|------- ------- ------- -------|
D|-------------------------------|-------------------------------|
A|0-----------9---7-------9------|0-----------9---7-------9------|
E|-------------------------------|-------------------------------|



G|------- ------- ------- -------|------- ------- ------- -------|
D|-------------------------------|-------------------------------|
A|0-----------9---7-------9------|0-----------9---7-------9------|
E|-------------------------------|-------------------------------|



G|------- ------- ------- -------|------- ------- ------- -------|
D|-------------------------------|-------------------------------|
A|-------------------------------|-------------------------------|
E|0-----------9---7-------9------|0-----------9---7-------9------|



G|------- ------- ------- -------|------- ------- ------- -------|
D|-------------------------------|-------------------------------|
A|-------------------------------|-------------------------------|
E|0-----------9---7-------9------|0-----------9---7-------9------|



G|------- ------- ------- -------|------- ------- ------- -------|
D|-------------------------------|-------------------------------|
A|-------------------------------|-------------------------------|
E|0-----------9---7-------9------|0-----------9---7-------9------|



G|------- ------- ------- -------|------- ------- ------- -------|
D|-------------------------------|-------------------------------|
A|0-----------9---7-------9------|-------------------------------|
E|-------------------------------|0-----------9---7-------9------|



G|------- ------- ------- -------|------- ------- ------- -------|
D|-------------------------------|-------------------------------|
A|0-----------9---7-------9------|0---0--------------------------|
E|-------------------------------|----------------4-------2------|


Outro:
G|------- ------- ------- -------|------- ------- ------- -------|
D|-------------------------------|-------------------------------|
A|------------------------2------|-------------------------------|
E|0---------------4--------------|0---0-----------2-------4------|



G|------- ------- ------- -------|------- ------- ------- -------|
D|------------------------2------|-------------------------------|
A|0---------------4--------------|0---0--------------------------|
E|-------------------------------|----------------4-------2------|



G|------- ------- ------- -------|------- ------- ------- -------|
D|-------------------------------|-------------------------------|
A|------------------------2------|-------------------------------|
E|0---------------4--------------|0---0-----------2-------4------|



G|------- ------- ------- -------|------- ------- ------- -------|
D|------------------------2------|-------------------------------|
A|0---------------4--------------|0---0--------------------------|
E|-------------------------------|----------------4-------2------|



G|------- ------- ------- -------|------- ------- ------- -------|
D|-------------------------------|-------------------------------|
A|------------------------2------|-------------------------------|
E|0---------------4--------------|0---0-----------2-------4------|



G|------- ------- ------- -------|------- ------- ------- -------|
D|------------------------2------|-------------------------------|
A|0---------------4--------------|0------------------------------|
E|-------------------------------|-------------------------------|


Please e-mail me for any corrections, or write a comment.
comments
We did not receive enough feedback on this tab! Please rate:
print report bad tab
1 2 3 4 5
I want to post or [tab]
guest
You may want to rate the tab now too:
select rating
Please do not post tabs as comments. Select "correction" instead!