Oops, an error
Loading. Please wait.

Fbi Bass Tab

version 1
version 1

Whole song

Interactive

2,437 views 6 this week
no commentswrite comment
1 2 3 4 5
excellent!
x 1
add to favorites
launch autoscroll
font size
0
reset
guitar tuner
Tab Pro tools
  • play this tab
  • loop segment
  • change instrument
  • show fretboard
  • metronome
Autoscroll
slow
fast
+/-
esc
set tempo
stop
Contributor
F.B.I.
The Shadows
Written by Jet Harris, Hank Marvin and Bruce Welch; released as a single with 
"Midnight" as the B-side.

Intro:
G|------ ------ ------ ------|------ ------ ------ ------|
D|7-------------7------------|7-------------7------------|
A|-------7-------------7-----|-------7-------------7-----|
E|---------------------------|---------------------------|


Verse:
G|------ ------ ------ ------|------ ------ ------ ------|
D|7-------------7------------|7-------------7------------|
A|-------7-------------7-----|-------7-------------7-----|
E|---------------------------|---------------------------|



G|------ ------ ------ ------|------ ------ ------ ------|
D|7-------------7------------|7-------------7------------|
A|-------7-------------7-----|-------7-------------7-----|
E|---------------------------|---------------------------|



G|------ ------ ------ ------|------ ------ ------ ------|
D|7-------------7------------|7-------------7------------|
A|-------7-------------7-----|-------7-------------7-----|
E|---------------------------|---------------------------|



G|------ ------ ------ ------|------ ------ ------ ------|
D|---------------------------|---------------------------|
A|5------5------5------5-----|7------7------7------7-----|
E|---------------------------|---------------------------|



G|------ ------ ------ ------|------ ------ ------ ------|
D|7-------------7------------|7-------------7------------|
A|-------7-------------7-----|-------7-------------7-----|
E|---------------------------|---------------------------|


Verse:
G|------ ------ ------ ------|------ ------ ------ ------|
D|7-------------7------------|7-------------7------------|
A|-------7-------------7-----|-------7-------------7-----|
E|---------------------------|---------------------------|



G|------ ------ ------ ------|------ ------ ------ ------|
D|7-------------7------------|7-------------7------------|
A|-------7-------------7-----|-------7-------------7-----|
E|---------------------------|---------------------------|



G|------ ------ ------ ------|------ ------ ------ ------|
D|7-------------7------------|7-------------7------------|
A|-------7-------------7-----|-------7-------------7-----|
E|---------------------------|---------------------------|



G|------ ------ ------ ------|------ ------ ------ ------|
D|---------------------------|---------------------------|
A|5------5------5------5-----|7------7------7------7-----|
E|---------------------------|---------------------------|



G|------ ------ ------ ------|------ ------ ------ ------|
D|7-------------7------------|7-------------7------------|
A|-------7-------------7-----|-------7-------------7-----|
E|---------------------------|---------------------------|


Bridge:
G|------ ------ ------ ------|------ ------ ------ ------|
D|---------------------------|---------------------------|
A|6/7-7--7---7--7---7--7---7-|---------------------------|
E|---------------------------|8---8--8---8--8---8--7/8-8-|



G|------ ------ ------ ------|------ ------ ------ ------|
D|---------------------------|---------------------------|
A|8---8--8---8--7/8-8--7/8-8-|6/7-7--7---7--6/7-7--7---7-|
E|---------------------------|---------------------------|



G|------ ------ ------ ------|------ ------ ------ ------|
D|---------------------------|---------------------------|
A|---------------------------|8---8--8---8--8---8--8---9-|
E|8---8--8---8--8---8--8-----|---------------------------|



G|------ ------ ------ ------|------ ------ ------ ------|
D|9---9--9---9--9---9--9-----|---------------------------|
A|---------------------------|7---7--7---7--7---7--7-----|
E|---------------------------|---------------------------|



G|------ ------ ------ ------|------ ------ ------ ------|
D|9---9--9---9--9---9--9-----|---------------------------|
A|---------------------------|7---7--7---7--7---7--7---7-|
E|---------------------------|---------------------------|



G|------ ------ ------ ------|------ ------ ------ ------|
D|7-------------7------------|7-------------7------------|
A|-------7-------------7-----|-------7-------------7-----|
E|---------------------------|---------------------------|


Verse:
G|------ ------ ------ ------|------ ------ ------ ------|
D|7-------------7------------|7-------------7------------|
A|-------7-------------7-----|-------7-------------7-----|
E|---------------------------|---------------------------|



G|------ ------ ------ ------|------ ------ ------ ------|
D|7-------------7------------|7-------------7------------|
A|-------7-------------7-----|-------7-------------7-----|
E|---------------------------|---------------------------|



G|------ ------ ------ ------|------ ------ ------ ------|
D|7-------------7------------|7-------------7------------|
A|-------7-------------7-----|-------7-------------7-----|
E|---------------------------|---------------------------|



G|------ ------ ------ ------|------ ------ ------ ------|
D|---------------------------|---------------------------|
A|5------5------5------5-----|7------7------7------7-----|
E|---------------------------|---------------------------|



G|------ ------ ------ ------|------ ------ ------ ------|
D|7-------------7------------|7-------------7------------|
A|-------7-------------7-----|-------7-------------7-----|
E|---------------------------|---------------------------|


Verse:
G|------ ------ ------ ------|------ ------ ------ ------|
D|7-------------7------------|7-------------7------------|
A|-------7-------------7-----|-------7-------------7-----|
E|---------------------------|---------------------------|



G|------ ------ ------ ------|------ ------ ------ ------|
D|7-------------7------------|7-------------7------------|
A|-------7-------------7-----|-------7-------------7-----|
E|---------------------------|---------------------------|



G|------ ------ ------ ------|------ ------ ------ ------|
D|7-------------7------------|7-------------7------------|
A|-------7-------------7-----|-------7-------------7-----|
E|---------------------------|---------------------------|



G|------ ------ ------ ------|------ ------ ------ ------|
D|---------------------------|---------------------------|
A|5------5------5------5-----|7------7------7------7-----|
E|---------------------------|---------------------------|



G|------ ------ ------ ------|------ ------ ------ ------|
D|7-------------7------------|7-------------7------------|
A|-------7-------------7-----|-------7-------------7-----|
E|---------------------------|---------------------------|


Bridge:
G|------ ------ ------ ------|------ ------ ------ ------|
D|---------------------------|---------------------------|
A|6/7-7--7---7--7---7--7---7-|---------------------------|
E|---------------------------|8---8--8---8--8---8--7/8-8-|



G|------ ------ ------ ------|------ ------ ------ ------|
D|---------------------------|---------------------------|
A|8---8--8---8--8---8--8---8-|7---7--7---7--7---7--7-----|
E|---------------------------|---------------------------|



G|------ ------ ------ ------|------ ------ ------ ------|
D|---------------------------|---------------------------|
A|---------------------------|8---8--8---8--8---8--8---8-|
E|8---8--8---8--8---8--8---8-|---------------------------|



G|------ ------ ------ ------|------ ------ ------ ------|
D|9---9--9---9--9---9--9---9-|---------------------------|
A|---------------------------|7---7--7---7--7---7--7---7-|
E|---------------------------|---------------------------|



G|------ ------ ------ ------|------ ------ ------ ------|
D|9---9--9---9--9---9--9-----|---------------------------|
A|---------------------------|7---7--7---7--7---7--7---7-|
E|---------------------------|---------------------------|



G|------ ------ ------ ------|------ ------ ------ ------|
D|7-------------7------------|7-------------7------------|
A|-------7-------------7-----|-------7-------------7-----|
E|---------------------------|---------------------------|


Verse:
G|------ ------ ------ ------|------ ------ ------ ------|
D|7-------------7------------|7-------------7------------|
A|-------7-------------7-----|-------7-------------7-----|
E|---------------------------|---------------------------|



G|------ ------ ------ ------|------ ------ ------ ------|
D|7-------------7------------|7-------------7------------|
A|-------7-------------7-----|-------7-------------7-----|
E|---------------------------|---------------------------|



G|------ ------ ------ ------|------ ------ ------ ------|
D|7-------------7------------|7-------------7------------|
A|-------7-------------7-----|-------7-------------7-----|
E|---------------------------|---------------------------|



G|------ ------ ------ ------|------ ------ ------ ------|
D|---------------------------|---------------------------|
A|5------5------5------5-----|7------7------7------7-----|
E|---------------------------|---------------------------|



G|------ ------ ------ ------|------ ------ ------ ------|
D|7-------------7------------|7-------------7------------|
A|-------7-------------7-----|-------7-------------7-----|
E|---------------------------|---------------------------|


Outro:
G|------ ------ ------ ------|------ ------ ------ ------|
D|7-------------7------------|7-------------7------------|
A|-------7-------------7-----|-------7-------------7-----|
E|---------------------------|---------------------------|
repeat and fade out...

Please e-mail me for any corrections, or write a comment.
comments
We did not receive enough feedback on this tab! Please rate:
print report bad tab
1 2 3 4 5
I want to post or [tab]
guest
You may want to rate the tab now too:
select rating
Please do not post tabs as comments. Select "correction" instead!