Oops, an error
Loading. Please wait.

Fbi Tab

version 2
version 2

Whole song

Interactive

28,973 views 30 this week
1 commentread comment
1 2 3 4 5
please rate
add to favorites
launch autoscroll
font size
0
reset
how to read this tab
guitar tuner
Tab Pro tools
  • play this tab
  • loop segment
  • change instrument
  • show fretboard
  • metronome
×
Best way to learn
"Fbi"
Autoscroll
slow
fast
+/-
esc
set tempo
stop
Difficulty
intermediate
FBI - The Shadows

INTRO - Main theme played twice
E ----------------------------------|----5----------------------|------------------------|
B ----------------------------------|----5-8-5------------------|-------5-------5--------|
G ----5-7/9---7-5-----5-7/9---7-5---|--5-------7-5-7/9-9-7-5----|---5-7---7-5-7---7-5----|
D --7-------7-----7-7-------7-----7-|-7-----------------------7-|-7----------------------|
A ----------------------------------|---------------------------|------------------------|
E ----------------------------------|---------------------------|------------------------|

E ------------------------|--------------------------------------------------------------|
B ------------------------|--------------------------------------------------------------|
G ----5---------5---------|--------------------------------------------------------------|
D --7---7-5---7---7-5-----|--------------------------------------------------------------|
A ----------7---------7-7-|---5-7-7------------------------------------------------------|
E ------------------------|-7------------------------------------------------------------|

SECTION A
E ---------------------------------------------------------------------------------------|
B ---------------------------------------------------------------------------------------|
G -------44---------------------------55-----------44-------------------------55---------|
D ----66----66---------55----------77----77-----66----66------55-----------77----77------|
A -77---------------77----77----88-----------77------------77----77-----88---------------|
E ---------------88-------------------------------------88-------------------------------|

E ---------------------------------------------------------------------------------------|
B ---------------------------------------------------------------------------------------|
G ---------------------------------------------------------------------------------------|
D -------44---------------------44-------------------------------------------------------|
A ----66----66--77-5-6-7-----66----66--77-55-33-22-0-------------------------------------|
E -77---------------------77-------------------------------------------------------------|

SECTION B - Main theme played lower with ending 1 ..............Section B - Ending 1
E ---------------------------------|---------------------------|-------------------------|
B ---------------------------------|---------------------------|-------------------------|
G ---------------------------------|-----2-0-------------------|-------------------------|
D -----0-2---0---------0-2---0-----|---------2-0---0-2-2-0-----|-----0-2-0---0-2-0---0-2-|
A -0-3-----0---3-0-0-3-----0---3-0-|-0-3---------3---------3-0-|-0-3-------3-------3-----|
E ---------------------------------|---------------------------|-------------------------|
 .............................Section B - Ending 2
E ---------------------------|-----------------------------------------------------------|
B ---------------------------|-----------------------------------------------------------|
G ---------------------------|-----------------------------------------------------------|
D -0-----0-2-0---------------|-----2-2-0-----------*-------------------------------------|
A ---3-0-------3-0-0-----0-0-|-0-3-------3-0---0---*-------0-5/7-------0-5/7-------0-5/7-|
E -------------------0-3-----|---------------3-----*-0-3-4-------0-3-4-------0-3-4-------|

SECTION C - High section lasting approx 15 secs
E ------------------------------------------------------------|--------------------------|
B -17-15-17-------15-----15-17-------15-----15-17-------15----|-15-17--15-17--15-17------|
G ----------14-17----17--------14-17----17--------14-17----17-|--------------------------|
D ------------------------------------------------------------|--------------------------|
A ------------------------------------------------------------|--------------------------|
E ------------------------------------------------------------|--------------------------|

E -------------------------------------|-------------------------------------------------|
B -15-17-------------------------------|--15h17-15h17-15h17-15h7--15-17--15-17--15-17----|
G -------17-14----------14-17-14-------|-------------------------------------------------|
D -------------17-14-17----------17-14-|-------------------------------------------------|
A -------------------------------------|-------------------------------------------------|
E -------------------------------------|-------------------------------------------------|

E ---------------------------------------------------------------------------------------|
B -15-17--15-17--15-17--15-17-17-17-15-17-15-17------------------------------------------|
G ----------------------------------------------17-14----14------------------------------|
D ----------------------------------------------------17---------------------------------|
A ---------------------------------------------------------------------------------------|
E ---------------------------------------------------------------------------------------|

Now play SECTION A again followed by SECTION B with ending 2. Repeat from * to fadeout.
comments
We did not receive enough feedback on this tab! Please rate:
print report bad tab
1 2 3 4 5
1 comment total.
-1 reply
richardneal40 wrote on August 19 2015, 11:23 am

Sorry to say but the shadows tab music book says almost all wrong I can try and scan it for you.

I want to post or [tab]
guest
You may want to rate the tab now too:
select rating
Please do not post tabs as comments. Select "correction" instead!