Oops, an error
Loading. Please wait.

Foot Tapper Tab

version 3
version 3

Whole song

Interactive

4,182 views 12 this week
no commentswrite comment
1 2 3 4 5
accurate
x 2
add to favorites
launch autoscroll
font size
0
reset
how to read this tab
guitar tuner
Tab Pro tools
  • play this tab
  • loop segment
  • change instrument
  • show fretboard
  • metronome
Autoscroll
slow
fast
+/-
esc
set tempo
stop
Contributor
Difficulty
intermediate
---------------------------


 	C	Am	F	G	C

E |------|--------------|---------------|-------------|--------|---------------|
B |------|------5-5-----|---------------|-------------|--------|------5--5-----|
G |------|-5--5-----5-4-|------5--5-----|------5--5---|--------|-5--5------5-4-|
D |------|--------------|-7--7------7-5-|-----------7-|--5--5--|---------------|
A |------|--------------|---------------|-8--8--------|--------|---------------|
E |------|--------------|---------------|-------------|--------|---------------|


 	Am	F	G

E |---------------|-------------|------------||
B |---------------|-------------|--------1-3-||
G |------5--5-----|------5--5---|------0-----||
D |-7--7------7-5-|-----------7-|-5-5--------||
A |---------------|-8--8--------|------------||
E |---------------|-------------|------------||


 	C	G	C

E |-----------|---3-5-3-(3)-----0-|----------|-----5-3-------|-----------|
B |-1--1--3-4-|-5-------------0---|-3--3-----|---3-------1-3-|-1--1--3-4-|
G |-----------|-------------0-----|------0-3-|-4-------0-----|-----------|
D |-----------|-------------------|----------|---------------|-----------|
A |-----------|-------------------|----------|---------------|-----------|
E |-----------|-------------------|----------|---------------|-----------|


 	F	G	C

E |---3-5-3-(3)-|-1-0---|----------|---------------|
B |-5-----------|-----3-|-1-0----0-|------5--5-----|
G |-------------|-------|------2---|-5--5------5-4-|
D |-------------|-------|----------|---------------|
A |-------------|-------|----------|---------------|
E |-------------|-------|----------|---------------|


 	1	2	Am	F	G	Am	C

E |--------------|------------|-----------||------------|---------------|-----||
B |--------------|------------|-------1-3-||------------|---------------|-----||
G |-----5--5-----|-----5--5---|-----0-----||-----5--5---|---------------|-----||
D |-7-7------7-5-|----------7-|-5-5-------||-7-7------7-|-5-5-2-(2)-5-2-|-----||
A |--------------|-8-8--------|-----------||------------|---------------|-3-3-||
E |--------------|------------|-----------||------------|---------------|-----||


 	G	C	G	C	Am	F

E |------|-----|---------|----|------|-----|---|-------|---|-------|---|-------|
B |------|-----|---------|----|------|-----|---|-------|---|-------|---|-------|
G |------|-----|---------|----|------|-----|---|-------|---|-------|---|-------|
D |--9-7-|-5-3-|-2-6-7-5-|(5)-|--9-7-|-5-3-|-2-|---0-2-|---|---0-2-|---|---0-2-|
A |-10-8-|-7-5-|-3-7/8-7-|(7)-|-10-8-|-7-5-|-3-|-3-----|-0-|-3-----|---|-3-----|
E |------|-----|---------|----|------|-----|---|-------|---|-------|-1-|-------|


 	D	G

E |---------|----------|-------------|-------------||
B |---------|----------|-------------|---------1-3-||
G |---------|----------|-------------|-------0-----||
D |---------|----------|-------------|-5--5--------||
A |-5-55-55-|-5--0-2-3-|-5--4-5--4-5-|-------------||
E |---------|----------|-------------|-------------||


 	C	G	C

E |-----------|---3-5-3-(3)-----0-|----------|-----5-3-------|-----------|
B |-1--1--3-4-|-5-------------0---|-3--3-----|---3-------1-3-|-1--1--3-4-|
G |-----------|-------------0-----|------0-3-|-4-------0-----|-----------|
D |-----------|-------------------|----------|---------------|-----------|
A |-----------|-------------------|----------|---------------|-----------|
E |-----------|-------------------|----------|---------------|-----------|


 	F	G	C	Am	C

E |---3-5-3-(3)|-1-0---|---------|---------------|----------------|------------|
B |-5----------|-----3-|-1-0---0-|------5--5-----|----------------|------------|
G |------------|-------|-----2---|-5--5------5-4-|------5-(5)-5---|------------|
D |------------|-------|---------|---------------|-7--7---------7-|-5-5-2--5-2-|
A |------------|-------|---------|---------------|----------------|------------|
E |------------|-------|---------|---------------|----------------|------------|


 	G	C	F	C

E |-----------|------|-------|------|-------|------|-------|-----|-------|-----|
B |-----------|------|-------|------|-------|------|-------|-----|-------|-----|
G |-----------|------|-------|------|-------|------|-------|-----|-------|-----|
D |-----------|------|-----2-|------|---2-3-|-2--2-|-2-3-5-|-3-3-|-3-2---|-2-2-|
A |-3-3-----2-|-3--3-|-3-5---|-5--5-|-5-----|------|-------|-----|-----5-|-----|
E |-----3-5---|------|-------|------|-------|------|-------|-----|-------|-----|


 	G	C

E |-------|------|-------|-----------|------------------|-------------|-----||
B |-------|------|-------|-----------|------------------|-------------|-----||
G |-------|------|-------|-----------|------------------|-------------|-----||
D |-2-----|------|-------|-----------|------------------|-------------|-----||
A |---5-3-|-5--5-|-----2-|-3-2/3-----|-2/3-2/3----------|-2/3-3-------|--3--||
E |-------|------|-3-5---|-------3-3-|---------3--3-3-3-|-------3-3-3-|-----||


 	G	C	G	C	Am	2	F

E |------|-----|---------|-----|------|-----|---|-------|----|-------|----|
B |------|-----|---------|-----|------|-----|---|-------|----|-------|----|
G |------|-----|---------|-----|------|-----|---|-------|----|-------|----|
D |--9-7-|-5-3-|-2-6-7-5-|-(5)-|--9-7-|-5-3-|-2-|---0-2-|----|---0-2-|----|
A |-10-8-|-7-5-|-3-7/8-7-|-(7)-|-10-8-|-7-5-|-3-|-3-----|-0--|-3-----|-1--|
E |------|-----|---------|-----|------|-----|---|-------|----|-------|----|


 	D	G

E |-------|-------------|----------|-------------|------------||
B |-------|-------------|----------|-------------|--------1-3-||
G |-------|-------------|----------|-------------|------0-----||
D |---0-2-|-------------|----------|-------------|-5-5--------||
A |-3-----|-5--5-5--5-5-|-5--0-2-3-|-5--4-5--4-5-|------------||
E |-------|-------------|----------|-------------|------------||


 	C	G	C

E |-----------|---3-5-3-(3)-----0-|----------|-----5-3-------|-----------|
B |-1--1--3-4-|-5-------------0---|-3--3-----|---3-------1-3-|-1--1--3-4-|
G |-----------|-------------0-----|------0-3-|-4-------0-----|-----------|
D |-----------|-------------------|----------|---------------|-----------|
A |-----------|-------------------|----------|---------------|-----------|
E |-----------|-------------------|----------|---------------|-----------|


 	F	G	2	C	Am	F

E |---3-5-3-(3)-|-1-0---|----------|---------------|--------------|------------|
B |-5-----------|-----3-|-1-0----0-|------5--5-----|--------------|------------|
G |-------------|-------|------2---|-5--5------5-4-|-----5--5-----|-----5--5---|
D |-------------|-------|----------|---------------|-7-7------7-5-|----------7-|
A |-------------|-------|----------|---------------|--------------|-8-8--------|
E |-------------|-------|----------|---------------|--------------|------------|


 	G	2	C	Am	C	C	2

E |-----|---------------|-------------|------------|-----|---|------|---|-----||
B |-----|------5--5-----|-------------|------------|-----|---|------|---|-----||
G |-----|-5--5------5-4-|------5--5---|------------|-----|---|------|---|-----||
D |-5-5-|---------------|-7--7------7-|-5-5-2--5-2-|-----|---|------|---|-2-2-||
A |-----|---------------|-------------|------------|-3-3-|---|-3--3-|---|-3-3-||
E |-----|---------------|-------------|------------|-----|---|------|---|-----||


Chords :
 	C	Am	F	G	D	Am	2	G	2	C	2

E |--0----0----1----3----2-----8-----7------8--|
B |--1----1----1----3----3----10-----8------8--|
G |--0----2----2----4----2-----9-----7------9--|
D |--2----2----3----5----0----10-----9-----10--|
A |--3----0----3----5--------------------------|
E |--------------------------------------------|

comments
We did not receive enough feedback on this tab! Please rate:
print report bad tab
1 2 3 4 5
I want to post or [tab]
guest
You may want to rate the tab now too:
select rating
Please do not post tabs as comments. Select "correction" instead!