Oops, an error
Loading. Please wait.

Frightened City Tab

version 1
version 1

Whole song

Interactive

11,363 views 3 this week
no commentswrite comment
1 2 3 4 5
excellent!
x 5
add to favorites
launch autoscroll
font size
0
reset
how to read this tab
guitar tuner
Tab Pro tools
  • play this tab
  • loop segment
  • change instrument
  • show fretboard
  • metronome
×
Best way to learn
"Frightened City"
Autoscroll
slow
fast
+/-
esc
set tempo
stop
Contributor
Difficulty
novice
Heres the shadows song, 'frightened city'
Tabber:Boyofmystery
I spent quite a long time tabbing this so it should be 100% correct.
Any questions? tombilly76@hotmail.com

Intro
|----0-------0-----0-------0-----0-------0-----0-------0--|
|-------4b5-----------4b5------------4b5----------4b5-----|
|--2-------------2-------------2-------------2------------|
|---------------------------------------------------------|
|---------------------------------------------------------|
|---------------------------------------------------------|

Verse 1 Play x2
|----------------------------------------------------------------|
|----------------------------------------------------------------|
|-------------------------------------------------4--2-----4--2--|
|--------------2-----2~----------------2-----2~---------3--------|
|-----0--2--3-----2~----------0--2--3-----2~---------------------|
|--0-----------------------0-------------------------------------|

|----------------------------------------------|
|----------------------------------------------|
|--4--2-----4--2-------4--2--------------------|
|--------3-------------------3--2--------------|
|----------------------------------3--2-----0--|
|----------------------------------------0-----|
Bridge 1
|------12--14--16--14--12--------------------------12--14--15--14--12--|
|--12----------------------14--12------12~-----12----------------------|
|----------------------------------11~---------------------------------|
|----------------------------------------------------------------------|
|----------------------------------------------------------------------
|----------------------------------------------------------------------|

|-------------------------------12~--------12---------12--12\----------|
|--13--12------10w----8~----6~------15b17------15b17------15b17\-------|
|----------11w-----9~----7~--------------------------------------------|
|----------------------------------------------------------------------|
|----------------------------------------------------------------------|
|----------------------------------------------------------------------|
Verse 2
|----------------------------------------------------------------|
|----------------------------------------------------------------|
|-------------------------------------------------4--2-----4--2--|
|--------------2-----2~----------------2-----2~---------3--------|
|-----0--2--3-----2~----------0--2--3-----2~---------------------|
|--0-----------------------0-------------------------------------|
                   *--------this bit is bass guitar-------------------*  
|----------------------------------------------------------------------|
|----------------------------------------------------------------------|
|--4--2-----4--2----4--2-----------------------4--2--------------------|
|--------3----------------3--2-----------------------3--2--------------|
|-------------------------------3--2-----0-----------------3--2-----0--|
|-------------------------------------0--------------------------0-----|
Solo
|------12------12----------------------------------------------------------|
|--13------13------13--10---------10h12---10p9p8-------10h13--10--10p9p8---|
|------------------------------9------------------9-----------------------9|
|--------------------------------------------------------------------------|
|--------------------------------------------------------------------------|
|--------------------------------------------------------------------------|
Bridge 2
|------12--14--16--14--12--------------------------12--14--15--14--12--|
|--12----------------------14--12------12~-----12----------------------|
|----------------------------------11~---------------------------------|
|----------------------------------------------------------------------|
|----------------------------------------------------------------------|
|----------------------------------------------------------------------|

|------------------------------------12---------12---------12--12------|
|--13--12------10w----8w----6w-----------15b17------15b17------15b17---|
|----------11w-----9w----7w--------------------------------------------|
|----------------------------------------------------------------------|
|----------------------------------------------------------------------|
|----------------------------------------------------------------------|

|-12-----12\-------|
|-15b17--15b17\----|
|------------------|
|------------------|
|------------------|
|------------------|
Verse 3
|----------------------------------------------------------------|
|----------------------------------------------------------------|
|-------------------------------------------------4--2-----4--2--|
|--------------2-----2~----------------2-----2~---------3--------|
|-----0--2--3-----2~----------0--2--3-----2~---------------------|
|--0-----------------------0-------------------------------------|
                   *--bas guitar----------* 
|----------------------------------------------------------------------|
|----------------------------------------------------------------------|
|--4--2-----4--2----4--2-----------------------4--2--------------------|
|--------3----------------3--2-----------------------3--2--------------|
|-------------------------------3--2-----0-----------------3--2-----0w-|
|-------------------------------------0--------------------------0-----|
Outro   * do this (5b6) every 3rd time or so.                                    
|----0-------0-----0-------0-----0-------0-----0-------0--|fade--
|-------5b6-----------4b5------------4b5----------5b6-----|fade--
|--2-------------2-------------2-------------2------------|fade--
|---------------------------------------------------------|fade--
|---------------------------------------------------------|fade--
|---------------------------------------------------------|fade--

Thats it have fun!

Key:
b = Bend (5b6 = 5 bend to 6)
w = wammy bar bend
x = mute note
~ = vibrato
\ = slide down neck
/ = slide up neck
comments
print report bad tab
I want to post or [tab]
guest
You may want to rate the tab now too:
select rating
Please do not post tabs as comments. Select "correction" instead!