Oops, an error
Loading. Please wait.

Ghost Riders In The Sky tab

83,014 views 135 this week
3 commentsread comments
1 2 3 4 5
x 11
add to favorites
×
Save as Personal and add changes to this tab that will be seen only by you. Learn more ›
×
You can save this tab as Personal to edit and correct it or add notes. All changes will be seen only by you. Learn more »
launch autoscroll
font size
0
reset
how to read this tab
guitar tuner
edit
Autoscroll
slow
fast
+/-
esc
set tempo
stop
Author
Difficulty
Unregistered
intermediate
Ghost Riders In The Sky – The Shadows


[Intro]

e|----------------------------------------------------------|
B|--------------------15----13---12-------------------------|
G|---14-----12---14------------------12-14------------------|
D|----------------------------------------------------------|
A|----------------------------------------------------------|
E|----------------------------------------------------------|

e|----------------------12-----15---------------------------|
B|------------15----13--------------------------------------|
G|---12---14------------------------14)))-------------------|
D|----------------------------------------------------------|
A|----------------------------------------------------------|
E|----------------------------------------------------------|

e|----------------------------------------------------------|
B|--------------------15----13---12-------------------------|
G|---14-----12---14------------------12-12---14-------------|
D|----------------------------------------------------------|
A|----------------------------------------------------------|
E|----------------------------------------------------------|

e|---------------------------12-15--------------------------|
B|--------------15----13------------------------------------|
G|-----12---14-----------------------14)))------------------|
D|----------------------------------------------------------|
A|----------------------------------------------------------|
E|----------------------------------------------------------|

 MAIN RIFF LOW
e|----------------------------------------------------------|
B|----------------------------------------------------------|
G|----------------------------------------------------------|
D|----------------------------------------------------------|
A|-----0--0-0-0---2--3-3-3-3--0-----------------------------|
E|---0--------------------------3—3-3-3--0--2b)))-----------|

e|----------------------------------------------------------|
B|----------------------------------------------------------|
G|----------------------------------------------------------|
D|----------------------------0--2--2-2-2---2)))------------|
A|-----0--0-0-0---2--3--3-3-3-------------3-----------------|
E|---0------------------------------------------------------|
        

e|------------------------------------------------------------|
B|------------------------------------------------------------|
G|-------2-2--2-2---------------------------------------------|
D|--0--2----------2-2-0-2-2-2-0-------------------------------|
A|------------------------------0---------3-3-3--3-3-0-0------|
E|--------------------------------0-1-1-1----------------3-3/5|


[Part 1]

e|----------------------------------------------------------|
B|----------------------------------------------------------|
G|---0-0-0-5---7-7-7-7---0-------------5---5-2b)))----------|
D|---------------------------2-3---3-3----------------------|
A|----------------------------------------------------------|
E|----------------------------------------------------------|

 MAIN RIFF HIGH
e|----------------------------------------------------------|
B|----------------------------------------------------------|
G|-----2--2-2-2---4--5-5-5-5--2-----------------------------|
D|---2--------------------------5-5-5-5-2-4b)))-------------|
A|----------------------------------------------------------|
E|----------------------------------------------------------|

e|----------------------------------------------------------|
B|---------------------------3--5--5-5-5--0-5---------------|
G|-----2--2-2-2---4--5-5-5-5--------------------------------|
D|---2------------------------------------------------------|
A|----------------------------------------------------------|
E|----------------------------------------------------------|

e|-------5-0-5-0-5-0-5\0------------------------------------|
B|---0-5------------------5-5---5-5-5-----------------------|
G|----------------------------5-------5--2----------5-------|
D|-----------------------------------------2-3-3-3----------|
A|----------------------------------------------------------|
E|----------------------------------------------------------|

e|----------------------------------------------------------|
B|----------------------------------------------------------|
G|---5-5-2-2-0-1/2)))---------------------------------------|
D|----------------------------------------------------------|
A|----------------------------------------------------------|
E|----------------------------------------------------------|

PERCUSSIONAL INTERLUDE 15 SECONDS


[Part 2]

e|----------------------------------------------------------|
B|----------------------------------------------------------|
G|---0-0-0-5---7-7-7-7---0-------------5---5-2b)))----------|
D|---------------------------2-3---3-3----------------------|
A|----------------------------------------------------------|
E|----------------------------------------------------------|


e|---3-3-3-8---10-10-10-5---0-1--1-1-8---10-8---5-----------|
B|----------------------------------------------------------|
G|----------------------------------------------------------|
D|----------------------------------------------------------|
A|----------------------------------------------------------|
E|----------------------------------------------------------|

e|----------------------------------------------------------|
B|----------------------------------------------------------|
G|-------------5)))-----------------------------------------|
D|---2-3---3-3----------------------------------------------|
A|----------------------------------------------------------|
E|----------------------------------------------------------|


[Outro]

e|----------------------------------------------------------|
B|--------------------15----13---12-------------------------|
G|---14-----12---14------------------12-14------------------|
D|----------------------------------------------------------|
A|----------------------------------------------------------|
E|----------------------------------------------------------|

e|------------------------12-----15-------------------------|
B|--------------15----13------------------------------------|
G|-----12---14------------------------14))))))))))))))))))--|
D|----------------------------------------------------------|
A|----------------------------------------------------------|
E|----------------------------------------------------------|

e|--------------------------------------------12-15---------|
B|--------------15—13--12---------------15-13---------------|
G|---14---12-14-----------12-14---12-14-------------14------|
D|----------------------------------------------------------|
A|----------------------------------------------------------|
E|----------------------------------------------------------|

e|--------------------------------------------12-15---------|
B|--------------15—13--12---------------15-13---------------|
G|---14---12-14-----------12-14---12-14-------------14------|
D|----------------------------------------------------------|
A|----------------------------------------------------------|
E|----------------------------------------------------------|

REPEATED UNTIL FADES OUT…



************************************

| /  Slide up
| \  Slide down
| )  ring out
| b  bend

************************************

            
            
Suggest correction
Creating personal tab
Creating personal tab
You can edit any tab online and save it as your Personal.

You can edit, replace or remove any tab part or add personal notes – all changes will be seen only by you.

Personal tabs can be accessed anytime from any device, even offline.
Learn more »
comments
print report bad tab
3 comments total.
0 reply
Guitar-Sanders 10 Nov 15, 2008 02:58 AM

really good :)

+1 reply
McLeach 243 Feb 05, 2010 12:34 AM

The "D" notes on intro should be bends from "C"(13th fret).
Few wrong notes on "main riff low". And the "main riff high" is in the wrong key. It is supposed to be played 3 half notes higher. But otherwise pretty well captured.

0 reply
ralrally 10 Feb 26, 2013 01:55 PM

love this song

guest
Wanna post a correction for this tab? Suggest correction