Oops, an error
Loading. Please wait.

Kon Tiki Tab

version 2
version 2

Whole song

Interactive

5,124 views 24 this week
no commentswrite comment
1 2 3 4 5
excellent!
x 7
add to favorites
launch autoscroll
font size
0
reset
how to read this tab
guitar tuner
Tab Pro tools
  • play this tab
  • loop segment
  • change instrument
  • show fretboard
  • metronome
×
Best way to learn
"Kon Tiki"
Autoscroll
slow
fast
+/-
esc
set tempo
stop
Contributor
Difficulty
novice
Band - The Shadows
Song - Kon Tiki
Album - 50 Golden Greats
In The Key Of: A Major

Tabbed By: Tyler Freear (SumFX)

Tuning: Standard (E A D G B E)

Great Track By The Shadows!

I Have Tried To Made This Easy To Read By Putting Everything 
In 'Phases'.
I Have Also Added The Acoustic Guitar At The Bottom.

-----------------------------------------------------------------------------
                     Electric Guitar (Both Speakers)

Phase 1
|-------------|
|------9-9-9--|
|------9-9-9--|
|------9-9-9--| x2
|------7-7-7--|
|-0-0---------|

Phase 2
|-----------|-----------|-------------|---------------|
|-----0-2---|-3-3-3-2---|-----------2-|---------------|
|---2-----2-|---------2-|-1---1-2-4---|-------1-4-2---|
|-2---------|-----------|---4---------|-2-1-0-------2-|
|-----------|-----------|-------------|---------------|
|-----------|-----------|-------------|---------------|

|-------------|
|-------------|
|-------1-4-2-|
|-2-1-0-------|
|-------------|
|-------------|

Phase 3
|------------|-----------|-------------|---------------|
|-----00-2---|-3-3-3-2---|-----------2-|---------------|
|---22-----2-|---------2-|-1---1-2-4---|-------1-4-2---|
|-22---------|-----------|---4---------|-2-1-0-------2-|
|------------|-----------|-------------|---------------|
|------------|-----------|-------------|---------------|

|-------------|
|-------------|
|-------1-4-2-|
|-2-1-0-------|
|-------------|
|-------------|

Phase 4
|-10----7----9----5----|
|-10----9----10---5----|
|-11----9----9----6----| x2
|----------------------|
|----------------------|
|----------------------|

Phase 5/Solo
|------7-9----|-5/9---14-12-9--|-9--12-10--9--10-12-10-9--|
|-5/10-----10-|-5/10--15-14-10-|-10-14-12--10-12-14-12-10-|
|-------------|----------------|--------------------------|
|-------------|----------------|--------------------------|
|-------------|----------------|--------------------------|
|-------------|----------------|--------------------------|

|-7-9--10-9--7-9--7-9--|-4-5-7-7/-|-9---9------|
|-9-10-12-10-9-10-9-10-|-5-7-9-9/-|-10----10---|
|----------------------|----------|-9--------9-|
|----------------------|----------|------------|
|----------------------|----------|------------|
|----------------------|----------|------------|

Phase 6
|-10----7----9----5----|----------|-------|
|-10----9----10---5----|----------|-2-2-2-|
|-11----9----9----6----|----------|-2-2-2-|
|----------------------|----------|-2-2-2-|
|----------------------|----------|-0-0-0-|
|----------------------|----------|-------|

|-10----7----9----5----|
|-10----9----10---5----|
|-11----9----9----6----| 
|----------------------|
|----------------------|
|----------------------|

Phase 7
|-----------|-----------|-------------|---------------|
|-----0-2---|-3-3-3-2---|-----------2-|---------------|
|---2-----2-|---------2-|-1---1-2-4---|-------1-4-2---|
|-2---------|-----------|---4---------|-2-1-0-------2-|
|-----------|-----------|-------------|---------------|
|-----------|-----------|-------------|---------------|

|-------------|
|-------------|
|-------1-4-2-|
|-2-1-0-------|
|-------------|
|-------------|

Phase 8
|--------------------------0-|------------|
|------------------------3---|-33333333-2-|
|------------------1---1-----|-11111111-2-|
|---2---2----2---2---2-------|-22222222-2-|
|----------------------------|-22222222-0-|
|-0---0---0---0--------------|-00000000---|

----------------------------------------------------------------------------
                 Acoustic Guitar (Right Speaker)

Phase 1 x2
|E|

Phase 2
|A D| |A E| |A E| |A E| |A |

Phase 3
|A D| |A E| |A E| |A E| |A A|

Phase 4 x2
|D E| |A A| |A |

Phase 5
|A D| |A E| |A E| |A E| |A A|

Phase 6
|D E| |A A| |A | |A|
|D E| |A A| |A |

Phase 7
|A D| |A E| |A E| |A E| |A A|

Phase 8
|E E| |A E7| |E7 E7| |A|

Great Track, Have Fun.
Rate & Comment Please.
comments
print report bad tab
I want to post or [tab]
guest
You may want to rate the tab now too:
select rating
Please do not post tabs as comments. Select "correction" instead!