Oops, an error
Loading. Please wait.

Man Of Mystery Tab

version 1
version 1

Whole song

Interactive

44,894 views 93 this week
2 commentsread comments
1 2 3 4 5
x 9
add to favorites
launch autoscroll
font size
0
reset
how to read this tab
guitar tuner
backing track
0:00
0:00
×
Best way to learn
"Man Of Mystery"
Autoscroll
slow
fast
+/-
esc
set tempo
stop
Author/Artist: Carr/The Shadows
Title: Man Of Mystery


e|-12----------------------12--------------------|-------1--0--------1--0--1----|
B|-15b(17)-----------------15b(17)---------------|----1-----------0-------------|
G|-----------------------------------------------|-2-----------1----------------|
D|-----------------------------------------------|------------------------------|
A|-----------------------------------------------|------------------------------|
E|---------0x--0x--0x--0x----------0x--0x--0x--0x|------------------------------|


e|-0--------1--0--------0-----0-----------0-------------------------------------|
B|-------------------------3-----3-----------3--------3--1--3--1--1--0--1--0----|
G|----0--3-----------2-----------------2-----------2----------------------------|
D|----------------4-----------------3-----------2-------------------------------|
A|------------------------------------------------------------------------------|
E|------------------------------------------------------------------------------|


e|-----------------------1--0-------1--0--1--0------1--0-----0---0-------0------|
B|-1--0--1--0--1--0----1---------0-----------------------------3---3-------3----|
G|-------------------2--------1----------------0--3--------2-----------2--------|
D|-------------------------------------------------------4-----------3-------2--|
A|------------------------------------------------------------------------------|
E|------------------------------------------------------------------------------|

                                  w/bar bend
e|----------------------------------------------------7--5--------7--5--7--5----|
B|----3--1--3--1--1--0-----0--1--0--1(0)(1)--------6-----------5----------------|
G|-2--------------------3-----------2(1)(2)-----7-----------5-------------------|
D|----------------------------------2(1)(2)-------------------------------------|
A|------------------------------------------------------------------------------|
E|------------------------------------------------------------------------------|


e|------------------------------------------------------------------------------|
B|------------------------------------------------3--3-----3--3-----3----1--1---|
G|---------------------------------------------------2--2--2--2--2----2-----2---|
D|-6--5--4--3--------------0x--1x--1x--0x------0--------------------------------|
A|-------------0x--0x--3x------------------3x-----------------------------------|
E|------------------------------------------------------------------------------|
                               w/bar bend

e|-------------------------------12(11)(12)|-------1--0----------1--0--1--0-----|
B|----1-----1--------4--4------------------|----1-------------0-----------------|
G|-------2--------4--4--4--4--4---9-(8)-(9)|-2-------------1-----------------0--|
D|-2-----------0--4------------------------|------------------------------------|
A|-----------------------------------------|------------------------------------|
E|-----------------------------------------|------------------------------------|


e|-----1--0--------0-----0-----------0------------------------------------------|
B|--------------------3-----3-----------3--------3--1--3--1--1--0-----0--1--0---|
G|--3-----------2-----------------2-----------2--------------------3------------|
D|-----------4-----------------3-----------2------------------------------------|
A|------------------------------------------------------------------------------|
E|------------------------------------------------------------------------------|
 w/bar bend  w/bar vibrato                                         w/bar vib

e|------------|-5v-------0v-|---------------5-----------------------|-5v----0v--|
B|-1(0)(1)----|-6v-------1v-|------------8-----5--------------------|-6v----1v--|
G|-2(1)(2)----|-7v-------2v-|---------------------7p5-----7--5-----5|-7v----2v--|
D|-2(1)(2)----|----------2v-|-6--5--4\2----------------7--------7---|-------2v--|
A|------------|-------------|---------------------------------------|-----------|
E|------------|-------------|---------------------------------------|-----------|


e|----7-----------------------------------------------------|-----12------12----|
B|-------7-----7--------------------------------------------|-15------15--------|
G|-4--------4-----------------------------------------------|-------------------|
D|----------------------------------------------------------|-------------------|
A|----------------6/7--------6h7-----6h7-----6h7-----6h7----|-------------------|
E|---------------------0--0-------0-------0-------0-------0-|-------------------|

                                                           #repick
e|-----12-------------------12-----------12-----------12---------------------12-|
B|-15------15--13--15b(17)------15b(17)------15b(17)-----(#17)-(#17)r15--13--15-|
G|------------------------------------------------------------------------------|
D|------------------------------------------------------------------------------|
A|------------------------------------------------------------------------------|
E|------------------------------------------------------------------------------|

                                           #repick
e|-----12--------------12------12--12--12--------------12-----------------------|
B|-15-----13------15---13------15b(17)----(#17)r(15)---13---------------12------|
G|-------------14----------14-------------------------------14--12------12------|
D|------------------------------------------------------------------14----------|
A|------------------------------------------------------------------------------|
E|------------------------------------------------------------------------------|


e|------------------------------------------------------------------------------|
B|-14p12------14--14p12------14--14p12------14--14p12------14--14p12------14----|
G|-14p12--12------14p12--12------14p12--12------14p12--12------14p12--12--------|
D|------------------------------------------------------------------------------|
A|------------------------------------------------------------------------------|
E|------------------------------------------------------------------------------|


e|--------------------------------------------------------------------12--------|
B|-14p12------14--14p12------14--14p12----------12------14---12-------12--------|
G|-14p12--12------14p12--12------14p12--12------12------14---12--12v------------|
D|------------------------------------------14------14-----------14v------------|
A|------------------------------------------------------------------------------|
E|------------------------------------------------------------------------------|


e|----------12|-------1--0--------1--0--1--0--------1--0--------0-----0---------|
B|-15b(17)----|----1-----------0-----------------------------------3-----3------|
G|------------|-2-----------1-----------------0--3-----------2------------------|
D|------------|-------------------------------------------4---------------------|
A|------------|-----------------------------------------------------------------|
E|------------|-----------------------------------------------------------------|


e|-------0---------------------------------------------------------1--0---------|
B|----------3--------3--1--3--1--1--0-----0--1--0---------------1-----------0---|
G|----2-----------2--------------------3-----------2---------2-----------1------|
D|-3-----------2-----------------------------------2--2--2----------------------|
A|----------------------------------------------------2--2----------------------|
E|------------------------------------------------------------------------------|


e|-1--0--1--0--------1--0--------0-----0-----------0---------------------------|
B|----------------------------------3-----3-----------3--------3--1--3--1--1---|
G|-------------0--3-----------2-----------------2-----------2------------------|
D|-------------------------4-----------------3-----------2---------------------|
A|-----------------------------------------------------------------------------|
E|-----------------------------------------------------------------------------|

              w/bar bend
e|---------------------------12------------------------------------------------|
B|-0-----0--1---1(0)---------15b(17)-------------------------------------------|
G|----3---------2(1)-----------------------------------------------------------|
D|--------------2(1)-----------------------------------------------------------|
A|-----------------------------------------------------------------------------|
E|-----------------------------------------------------------------------------|



************************************

| x    Dead note
| (n)  Ghost note
| p    Pull-off
| \    Slide down
| h    Hammer-on
| /    Slide up   

************************************
Suggest correction
comments
print report bad tab
2 comments total.
-2 reply
forwhomthebells 20 Apr 25, 2006 11:51 PM

hahaha it sucks like u!!!!!!!!!!!!!!!!!!!!!!!!!!!!!!!!!!!!!!!!!!!
only joking it's okay

+1 reply
glennthrower 30 Mar 10, 2007 08:47 AM

-12----------------------12--------------------|-------1--0--------1--0--1----
-15b(17)-----------------15b(17)---------------|----1-----------0-------------
-----------------------------------------------|-2-----------1----------------
-----------------------------------------------|------------------------------
-----------------------------------------------|------------------------------
---------0x--0x--0x--0x----------0x--0x--0x--0x|------------------------------

Thats what its meant to look like

guest
You may want to rate the tab now too:
select rating
Wanna post a correction for this tab? Suggest correction