Oops, an error
Loading. Please wait.

Peace Pipe tab

version 1
version 1

Whole song

Interactive

26,943 views 45 this week
2 commentsread comments
1 2 3 4 5
x 6
add to favorites
×
Save as Personal and add changes to this tab that will be seen only by you. Learn more ›
×
You can save this tab as Personal to edit and correct it or add notes. All changes will be seen only by you. Learn more »
launch autoscroll
font size
0
reset
how to read this tab
guitar tuner
backing track
0:00
0:00
edit
Autoscroll
slow
fast
+/-
esc
set tempo
stop
Author
[Intro]

E-17-16-17--------------------------------|
B------------10-9-10----------------------|
G-----------------------------------------|
D----------------------7-6-7--------------|
A-----------------------------------------|
E-------------------------------5-4-5-----|

Part 1

E-9-12-9----12---------9----------------------------------------------|
B--------12----10---10---10----10-----------(12>14)-12-----10>12-10---|
G---------------------------11---------9--9------------7-7------------|
D-----------------------------------12--------------------------------|
A---------------------------------------------------------------------|
E---------------------------------------------------------------------|

E--------------------|
B---12-10--10--------|
G-9--------9---------|
D--------------------|
A--------------------|
E--------------------|

Part 2

E------------------------------------------------|
B---10-8-10-8------------------------------------|
G-9-----------9-7----7------5-----4-4-4----------|
D-----------------10---9------7---------6--------|
A------------------------10-----8---------7------|
E------------------------------------------------|

Now play Part 1 again.

Part 3

E-------------------------------------------------------------------------|
B----14-12-10----14-12-10----14-12-10----14-12-10---14-12-9---14-12-9-10--|
G-11----------11----------10----------10----------9---------9-------------|
D-------------------------------------------------------------------------|
A-------------------------------------------------------------------------|
E-------------------------------------------------------------------------|

Then play part 1, followed by part 3.

[Outro]

E---------------17-16-17------14-------------|
B-------10-9-10-----------2---14-------------|
G-------------------------2------------------|
D-7-6-7-------------------2------------------|
A-------------------------0------------------|
E--------------------------------------------|

            
            
Suggest correction
Creating personal tab
Creating personal tab
You can edit any tab online and save it as your Personal.

You can edit, replace or remove any tab part or add personal notes – all changes will be seen only by you.

Personal tabs can be accessed anytime from any device, even offline.
Learn more »
comments
print report bad tab
2 comments total.
+2 reply
olahadrian5 10 May 23, 2009 10:27 AM

u should play this after the first time u play part 3:

----------------------------------------------------------------------
----------------------------------------------------------------------
----------------------------------------------------------------------
------0-0-0-0---------04-------------------------------------------------
-0---------------4----------------------------------------------------
----------------------------------------------------------------------



---------------------------------------------------------------------------
---------------------------------------------------------------------------
---------------------------------------------------------------------------
-------------------------------------------------------------0-------------
-----0---0---0---0-------0---4--------2---2---2---2---1---2------2-------0-
-0-------------------4------------0----------------------------------4-----

0 reply
metylek 10 Jan 31, 2017 07:17 AM

Almost, but last before one tab is not 4 but 0 (E6).

----------------------------------------------------------------------
----------------------------------------------------------------------
----------------------------------------------------------------------
------0-0-0-0---------04-------------------------------------------------
-0---------------4----------------------------------------------------
----------------------------------------------------------------------



---------------------------------------------------------------------------
---------------------------------------------------------------------------
---------------------------------------------------------------------------
-------------------------------------------------------------0-------------
-----0---0---0---0-------0---4--------2---2---2---2---1---2------2-------0-
-0-------------------4------------0----------------------------------0-----

guest
You may want to rate the tab now too:
select rating
Wanna post a correction for this tab? Suggest correction