Oops, an error
Loading. Please wait.

Quartermaster Stores Bass Tab

25 views 1 this week
no commentswrite comment
1 2 3 4 5
2 more votes to show rating
add to favorites
launch autoscroll
font size
0
reset
guitar tuner
Autoscroll
slow
fast
+/-
esc
set tempo
stop
Help us to improve Ultimate-Guitar.com Take our survey!
×
Author
Quartermasters Stores
This is the original B side of The Shadows number 1 hit Apache released
In 1960. Bass performance Jet Harris.  Tab by bass50611. Welcome to my
Tab. Jet Harris plays a lot of double semi-quavers. I have tab single as 
Sadly, I can no longer play that fast anymore. Play as a Walking Bass.
Symbol ‘.’ are pauses.

Intro:
G|--------------------------------------------------------------|
D|-----------------------------------------------4-----------4--|
A|------------------------------------------4--7--7-----4--7--7-|
E|-5----5----5----5----5----5----5----5---5-----------5---------|

Verse: 
G|------------------------------6---------------------------------|
D|--------4----------4-----6--9-----------4----------4----------4-|
A|---4--7--7----4--7-----7-----------4--7--7----4--7--7----4--7---|
E|-5----------5--------------------5----------5----------5--------|

                    (Play Verse x2)
G|-----------------------|
D|--------------------4--|
A|-7--5--4-------4--7--7-|
E|---------7---5---------|

Chorus 1:
G|-------------------------------------------6--------------------6-|
D|--------4----------------9--7--6------6--9------------4----6--9---|
A|---4--7--7---5--5--5--5----------9--7------------4--7----7--------|
E|-5---------------------------------------------5------------------|

                                                             (Break)
G|--------6-----------------------------------------------------|
D|---6--9-----------4-----------4-----------4-----------4-------|
A|-7-----------4--7--7-----4--7--7-----4--7--7-----4--7--7------|
E|-----------5-----------5-----------5-----------5------------5-|

Bridge:
G|------------------------------6---------------------------------|
D|--------4-----------4----6--9-----------4----------4----------4-|
A|---4--7--7-----4--7----7-----------4--7--7----4--7--7----4--7---|
E|-5-----------5-------------------5----------5----------5--------|

G|--------------------------------------------------------
D|--------------------4----------4----------4----------4--
A|-7--5--4-------4--7--7----4--7--7----4--7--7----4--7--7-
E|---------7---5----------5----------5----------5---------

Bass Runs:
             ‘.’              ‘.’
G|-----------------------------------------------------------------|
D|-7----------------9-9-7-9-7--------------------------4---------4-|
A|--9-7-9-7------------------9-------9-9-7-9-7----4--7------4—7----|
E|---------9-5----------------10--------------9-5---------5--------|
  ‘.’   ‘.’   ‘.’   ‘.’
G|----------------------------------------------|
D|--------------------------------4----------4--|
A|-7-----5-------------------4--7--7----4--7--7-|
E|-------------5-----5-----5----------5---------|

Verse: 
G|------------------------------6---------------------------------|
D|--------4----------4-----6--9-----------4----------4----------4-|
A|---4--7--7----4--7-----7-----------4--7--7----4--7--7----4--7---|
E|-5----------5--------------------5----------5----------5--------|

                    (Play Verse x2)
G|-----------------------|
D|--------------------4--|
A|-7--5--4-------4--7--7-|
E|---------7---5---------|

Chorus 2:
G|-------------------------------------------6--------------------6-|
D|--------4----------------9--7--6------6--9------------4----6--9---|
A|---4--7--7---5--5--5--5----------9--7------------4--7----7--------|
E|-5---------------------------------------------5------------------|

G|--------6------------|
D|---6--9-----------4--|
A|-7-----------4--7--7-|
E|-----------5---------|

Outro:
G|------------------------------6---------------------------------|
D|--------4----------4-----6--9-----------4----------4----------4-|
A|---4--7--7----4--7-----7-----------4--7--7----4--7--7----4--7---|
E|-5----------5--------------------5----------5----------5--------|

                    (Song Fade Out)
G|-----------------------|
D|--------------------4--|
A|-7--5--4-------4--7--7-|
E|---------7---5---------|

Symbol ‘.’ are pauses.
Suggest correction
Give kudos to tab author, rate the tab!
1 2 3 4 5
comments
print report bad tab
guest
You may want to rate the tab now too:
select rating
Wanna post a correction for this tab? Suggest correction