Oops, an error
Loading. Please wait.

Shindig bass

version 1
version 1

Whole song

Interactive

722 views 9 this week
no commentswrite comment
1 2 3 4 5
2 more votes to show rating
add to favorites
×
Save as Personal and add changes to this tab that will be seen only by you. Learn more ›
×
You can save this tab as Personal to edit and correct it or add notes. All changes will be seen only by you. Learn more »
launch autoscroll
font size
0
reset
guitar tuner
backing track
0:00
0:00
edit
Autoscroll
slow
fast
+/-
esc
set tempo
stop
Author
Shindig
The Shadows
Written by Hank Marvin and Bruce Welch; released as a single with "It's Been 
A Blue Day" as the B-side.

Intro:
G|------- ------- ------- -------|------- ------- ------- -------|
D|-------------------------------|-------------------------------|
A|-------------------------------|-------------------------------|
E|-------------------------------|------------------------4------|



G|------- ------- ------- -------|------- ------- ------- -------|
D|-------------------------------|-------------------------------|
A|-------------------------------|-------------------------------|
E|5------------------------------|------------------------4------|



G|------- ------- ------- -------|------- ------- ------- -------|
D|-------------------------------|-------------------------------|
A|-------------------------------|-------------------------------|
E|5------------------------------|------------------------4------|



G|------- ------- ------- -------|------- ------- ------- -------|
D|-------------------------------|-------------------------------|
A|-------------------------------|-------------------------------|
E|5------------------------------|-------------------------------|


Verse:
G|------- ------- ------- -------|------- ------- ------- -------|
D|7-------7-------7-------7------|-------------------------------|
A|-------------------------------|9-------9-------9-------9------|
E|-------------------------------|-------------------------------|



G|------- ------- ------- -------|------- ------- ------- -------|
D|7-------7-------7-------7------|-------------------------------|
A|-------------------------------|9-------9-------9-------9------|
E|-------------------------------|-------------------------------|



G|------- ------- ------- -------|------- ------- ------- -------|
D|7-------7-------7-------7------|-------------------------------|
A|-------------------------------|9-------9-------9-------9------|
E|-------------------------------|-------------------------------|



G|------- ------- ------- -------|------- ------- ------- -------|
D|-------------------------------|-------------------------------|
A|5-------5-------7-------7------|-------------------------------|
E|-------------------------------|5-------5---------------5------|



G|------- ------- ------- -------|------- ------- ------- -------|
D|-------------------------------|-------------------------------|
A|5-------5-------7-------7------|-------------------------------|
E|-------------------------------|5-------5---------------5------|


Verse:
G|------- ------- ------- -------|------- ------- ------- -------|
D|7-------7-------7-------7------|-------------------------------|
A|-------------------------------|9-------9-------9-------9------|
E|-------------------------------|-------------------------------|



G|------- ------- ------- -------|------- ------- ------- -------|
D|7-------7-------7-------7------|-------------------------------|
A|-------------------------------|9-------9-------9-------9------|
E|-------------------------------|-------------------------------|



G|------- ------- ------- -------|------- ------- ------- -------|
D|7-------7-------7-------7------|-------------------------------|
A|-------------------------------|9-------9-------9-------9------|
E|-------------------------------|-------------------------------|



G|------- ------- ------- -------|------- ------- ------- -------|
D|-------------------------------|-------------------------------|
A|5-------5-------7-------7------|-------------------------------|
E|-------------------------------|5-------5---------------5------|



G|------- ------- ------- -------|------- ------- ------- -------|
D|-------------------------------|-------------------------------|
A|5-------5-------7-------7------|-------------------------------|
E|-------------------------------|5-------5---------------5------|


Bridge:
G|------- ------- ------- -------|------- ------- ------- -------|
D|-------------------------------|-------------------------------|
A|-------------------------------|-------------------------------|
E|2-------2-------0---2-------0--|2-------2-------0---2-------0--|



G|------- ------- ------- -------|------- ------- ------- -------|
D|-------------------------------|-------------------------------|
A|-------------------------------|-------------------------------|
E|2-------2-------0---2-------0--|2-------2-------0---2-------0--|



G|------- ------- ------- -------|------- ------- ------- -------|
D|-------------------------------|-------------------------------|
A|-------------------------------|-------------------------------|
E|2-------2-------2-------4------|5-------5-------5-------5------|



G|------- ------- ------- -------|------- ------- ------- -------|
D|-------------------------------|-------------------------------|
A|5-------5-------5-------5------|-------------------------------|
E|-------------------------------|5-------5-------5-------5------|



G|------- ------- ------- -------|------- ------- ------- -------|
D|-------------------------------|-------------------------------|
A|-------------------------------|-------------------------------|
E|2-------2-------2-------2------|5-------5-------5-------5------|



G|------- ------- ------- -------|------- ------- ------- -------|
D|-------------------------------|2-------2-------2-------2------|
A|2-------2-------2-------2------|-------------------------------|
E|-------------------------------|-------------------------------|



G|------- ------- ------- -------|------- ------- ------- -------|
D|-------------------------------|-------------------------------|
A|-------------------------------|-------------------------------|
E|5-------5-------5-------5------|5---5-----------5--------------|



G|------- ------- ------- -------|------- ------- ------- -------|
D|-------------------------------|-------------------------------|
A|5-------5-------5-------5------|5---5-----------5--------------|
E|-------------------------------|-------------------------------|



G|------- ------- ------- -------|------- ------- ------- -------|
D|-------------------------------|-------------------------------|
A|-------------------------------|-------------------------------|
E|7-------7-------7-------7------|7---7-----------7--------------|



G|------- ------- ------- -------|------- ------- ------- -------|
D|-------------------------------|-------------------------------|
A|7---7-------7---7--------------|7---7-------7---7--------------|
E|-------------------------------|-------------------------------|



G|------- ------- ------- -------|------- ------- ------- -------|
D|-------------------------------|-------------------------------|
A|7-------7-------7-------7---7--|----7-----------7-------7------|
E|-------------------------------|-------------------------------|


Verse:
G|------- ------- ------- -------|------- ------- ------- -------|
D|7-------7-------7-------7------|-------------------------------|
A|-------------------------------|9-------9-------9-------9------|
E|-------------------------------|-------------------------------|



G|------- ------- ------- -------|------- ------- ------- -------|
D|7-------7-------7-------7------|-------------------------------|
A|-------------------------------|9-------9-------9-------9------|
E|-------------------------------|-------------------------------|



G|------- ------- ------- -------|------- ------- ------- -------|
D|7-------7-------7-------7------|-------------------------------|
A|-------------------------------|9-------9-------9-------9------|
E|-------------------------------|-------------------------------|



G|------- ------- ------- -------|------- ------- ------- -------|
D|-------------------------------|-------------------------------|
A|5-------5-------7-------7------|-------------------------------|
E|-------------------------------|5-------5---------------5------|



G|------- ------- ------- -------|------- ------- ------- -------|
D|-------------------------------|-------------------------------|
A|5-------5-------7-------7------|-------------------------------|
E|-------------------------------|5-------5---------------5------|


Bridge:
G|------- ------- ------- -------|------- ------- ------- 4------|
D|-------------------------------|5-------5-------5--------------|
A|5-------5-------5-------5------|-------------------------------|
E|-------------------------------|-------------------------------|



G|------- ------- ------- -------|------- ------- ------- -------|
D|7------------------------------|7------------------------------|
A|----------------7--------------|------------7------------------|
E|-------------------------------|-------------------------------|



G|------- ------- ------- -------|------- ------- ------- 4------|
D|-------------------------------|5-------5-------5--------------|
A|5-------5-------5-------5------|-------------------------------|
E|-------------------------------|-------------------------------|



G|------- ------- ------- -------|------- ------- ------- -------|
D|7------------------------------|7------------------------------|
A|----------------7--------------|----------------7--------------|
E|-------------------------------|-------------------------------|



G|------- ------- ------- -------|------- ------- ------- -------|
D|-------------------------------|-------------------------------|
A|5-------5-------5-------5------|7-------7-------7-------7------|
E|-------------------------------|-------------------------------|



G|------- ------- ------- -------|------- ------- ------- -------|
D|7-------7-------7-------7------|-------------------------------|
A|-------------------------------|9-------9-------9-------9------|
E|-------------------------------|-------------------------------|



G|------- ------- ------- -------|------- ------- ------- -------|
D|-------------------------------|-------------------------------|
A|-------------------------------|-------------------------------|
E|7-------7-------7-------7------|7-------7-------7--------------|



G|------- ------- ------- -------|------- ------- ------- -------|
D|-------------------------------|-------------------------------|
A|7---7---7---7-------7---7------|----7---7-------7--------------|
E|-------------------------------|-------------------------------|



G|------- ------- ------- -------|------- ------- ------- -------|
D|-------------------------------|-------------------------------|
A|7---7---7---7-------7---7------|----7---7-------7--------------|
E|-------------------------------|-------------------------------|


Verse:
G|------- ------- ------- -------|------- ------- ------- -------|
D|7-------7-------7-------7------|-------------------------------|
A|-------------------------------|9-------9---------------9------|
E|-------------------------------|----------------9--------------|



G|------- ------- ------- -------|------- ------- ------- -------|
D|7-------7-------7-------7------|-------------------------------|
A|-------------------------------|9-------9-------9-------9------|
E|-------------------------------|-------------------------------|



G|------- ------- ------- -------|------- ------- ------- -------|
D|7-------7-------7-------7------|-------------------------------|
A|-------------------------------|9-------9-------9-------9------|
E|-------------------------------|-------------------------------|



G|------- ------- ------- -------|------- ------- ------- -------|
D|-------------------------------|-------------------------------|
A|5---------------7-------7------|-------------------------------|
E|-------------------------------|5-------5---------------5------|



G|------- ------- ------- -------|------- ------- ------- -------|
D|-------------------------------|-------------------------------|
A|5---------------7-------7------|-------------------------------|
E|-------------------------------|5-------5---------------5------|


Verse:
G|------- ------- ------- -------|------- ------- ------- -------|
D|7-------7-------7-------7------|-------------------------------|
A|-------------------------------|9-------9-------9-------9------|
E|-------------------------------|-------------------------------|



G|------- ------- ------- -------|------- ------- ------- -------|
D|7-------7-------7-------7------|-------------------------------|
A|-------------------------------|9-------9-------9-------9------|
E|-------------------------------|-------------------------------|



G|------- ------- ------- -------|------- ------- ------- -------|
D|7-------7-------7-------7------|-------------------------------|
A|-------------------------------|9-------9-------9-------9------|
E|-------------------------------|-------------------------------|



G|------- ------- ------- -------|------- ------- ------- -------|
D|-------------------------------|-------------------------------|
A|5---------------7-------7------|-------------------------------|
E|-------------------------------|5-------5---------------5------|



G|------- ------- ------- -------|------- ------- ------- -------|
D|-------------------------------|-------------------------------|
A|5---------------7-------7------|-------------------------------|
E|-------------------------------|5-------5----------------------|


Outro:
G|------- ------- ------- -------|------- ------- ------- -------|
D|-------------------------------|-------------------------------|
A|-------------------------------|-------------------------------|
E|5------------------------------|------------------------4------|



G|------- ------- ------- -------|------- ------- ------- -------|
D|-------------------------------|-------------------------------|
A|-------------------------------|-------------------------------|
E|5------------------------------|------------------------4------|



G|------- ------- ------- -------|------- ------- ------- -------|
D|-------------------------------|-------------------------------|
A|-------------------------------|-------------------------------|
E|5------------------------------|-------------------------------|


Please e-mail me for any corrections, or write a comment.

            
            
Suggest correction
Creating personal tab
Creating personal tab
You can edit any tab online and save it as your Personal.

You can edit, replace or remove any tab part or add personal notes – all changes will be seen only by you.

Personal tabs can be accessed anytime from any device, even offline.
Learn more »
Give kudos to tab author, rate the tab!
1 2 3 4 5
comments
print report bad tab
guest
You may want to rate the tab now too:
select rating
Wanna post a correction for this tab? Suggest correction