Oops, an error
Loading. Please wait.

The Boys tab

version 1
version 1

Whole song

  • Never ever written a 'tab' in my life, so first attempt. Happy Days :).

Interactive

94 views 3 this week
no commentswrite comment
1 2 3 4 5
3 more votes to show rating
add to favorites
×
Save as Personal and add changes to this tab that will be seen only by you. Learn more ›
×
You can save this tab as Personal to edit and correct it or add notes. All changes will be seen only by you. Learn more »
launch autoscroll
font size
0
reset
how to read this tab
guitar tuner
backing track
0:00
0:00
edit
Autoscroll
slow
fast
+/-
esc
set tempo
stop
Author
About this tab version
Never ever written a 'tab' in my life, so first attempt. Happy Days :). Was this info helpful? Yes No
The Boys by The Shadows (1962)

Tabbed by G.Gillespie 20/03/2017
This my very first attempt at 'Tabbing', so I hope it sounds good for your use.
If any part of this tab is incorrect plz don't hestitate to contact me at the following 
email: ggillespie900@outlook.com (I don't mind any criticism, it'll make me work even harder. :) Ty.

  Part 1 (Verse) X 2                  ( PM )                                        ( PM )  
e|----------------5-4--------------|--9-10-12--|----------------5-4--------------|--9---------|
B|--5-----5-----5-----7-5-------5v-|-----------|--5-----5-----5-----7-5----------|----12--10--|
G|----6-7---6-7-----------7-6-7----|-----------|----6-7---6-7-----------7-6-4----|------------|
D|---------------------------------|-----------|------------------------------7v-|------------|
A|---------------------------------|-----------|---------------------------------|------------|
E|---------------------------------|-----------|---------------------------------|------------|

  Part 2 (Chorus)                     pause                              pause
e|-----------------------------------|-----|----------------------------|------|
B|-----------------------------------|-----|-------------------------5v-|------|
G|--2v--2v--4-5-4-5-5-4-2-4-2-0------|-----|--2v--2v--4-5--4-5-5-4-2----|------|
D|------------------------------5s3--|-----|----------------------------|------|
A|-----------------------------------|-----|----------------------------|------|
E|-----------------------------------|-----|----------------------------|------|

e|--5----------------|---|--3----------------|--------5-5-5--8-8-8---------|---|
B|----5---5----------|---|----3---3----------|--6-6-6--------------6s5--5v-|---|
G|------5---5---5-5v-|---|------4---4---4-4v-|-----------------------------|---|
D|------------7------|---|------------5-5-5v-|-----------------------------|---|
A|-------------------|---|-------------------|-----------------------------|---|
E|-------------------|---|-------------------|-----------------------------|---|
* Repeat Part 1 (Verse) - (This time only play it ONCE) 

  Part 3  (Bridge)                              (PM) 4 bars 
e|--------12--9-------12--8-7--12--8----------|---12---12---|
B|--12b-10--10--12b-10--10---10--10-10-12-12v-|-------------|
G|--------------------------------------------|-------------|
D|--------------------------------------------|-------------|
A|--------------------------------------------|-------------|
E|--------------------------------------------|-------------|

(Followed by)

  Part 2 (Chorus)                        pause                                pause
e|--------------------------------------|-----|------------------------------|-----|
B|--------------------------------------|-----|------------------------------|-----|
G|--------------------------------------|-----|------------------------------|-----|
D|--------------------------------------|-----|--------------------------2v--|-----|
A|--0v---0v--2-3--2-3-3-2-0-2-0------2--|-----|--0v---0v--2-3--2-3-3-2-3-----|-----|
E|------------------------------3v---3--|-----|------------------------------|-----|
                                    damp
                                                                     pause
e|--------------------|---|--------------------|--------------------|------|
B|--------------------|---|--------------------|--------------------|------|
G|--2-----------------|---|--0-----------------|----2-5-2-5-2-------|------|
D|----2---2-----------|---|----0---0-----------|--3-----------3s2v--|------|
A|------3---3-0-3-3v--|---|------2---2---2-2v--|--------------------|------|
E|--------------------|---|------------3-------|--------------------|------|
* Repeat Part 1 (Verse) - (Again, only play this ONCE)

(Followed by)

  Part 3  (Bridge)                              (PM) 4 Bars 
e|--------12--9-------12--8-7--12--8----------|---12---12---|
B|--12b-10--10--12b-10--10---10--10-10-12-12v-|-------------|
G|--------------------------------------------|-------------|
D|--------------------------------------------|-------------|
A|--------------------------------------------|-------------|
E|--------------------------------------------|-------------|
* Repeat Part 1

[Outro]
   ( PM ) 4 - 6 Bars
e|---12-12-12-12-12-12-12-12-12-12-12-|
B|------------------------------------|
G|------------------------------------|
D|------------------------------------|
A|------------------------------------|
E|------------------------------------|  (Fade Out To END)

************************************

| PM  Palm mute
| b   Bend
  

************************************

            
            
Suggest correction
Creating personal tab
Creating personal tab
You can edit any tab online and save it as your Personal.

You can edit, replace or remove any tab part or add personal notes – all changes will be seen only by you.

Personal tabs can be accessed anytime from any device, even offline.
Learn more »
Give kudos to tab author, rate the tab!
1 2 3 4 5
comments
print report bad tab
guest
You may want to rate the tab now too:
select rating
Wanna post a correction for this tab? Suggest correction