Oops, an error
Loading. Please wait.

How Late How Long Tab

4,741 views 18 this week
2 commentsread comments
1 2 3 4 5
accurate
x 5
add to favorites
launch autoscroll
font size
0
reset
how to read this tab
guitar tuner
Tab Pro tools
  • play this tab
  • loop segment
  • change instrument
  • show fretboard
  • metronome
Autoscroll
slow
fast
+/-
esc
set tempo
stop
Contributor
Difficulty
novice
-----------------------------------------------------------------
How Late, How Long - The Sheepdogs
-----------------------------------------------------------------
Tabbed by: DaleMac
Email: dalemac@gmail.com
Tuning: Standard


Intro: A-G-D-Fill
(When going from G to D just strum the top 3 strings of the G and then go to the D)
Fill Part-
Guitar 1

E|---------------------------------------------------------------|
B|---------------------------------------------------------------|
G|---------2p0---------------------------------------------------|
D|--------------4p0-5p0-4p0-2------------------------------------|
A|---2h3h4----------------------4--------------------------------|
E|---------------------------------------------------------------|

Guitar 2

E|---------------------------------------------------------------|
B|-----------10--------------------------------------------------|
G|--------------11p9-12p9-11p9-9---------------------------------|
D|---9h10h11---------------------11------------------------------|
A|---------------------------------------------------------------|
E|---------------------------------------------------------------|

Verse:
A                 G D
How Late, How Long
A                  G D
Singin' your song?
A             G D
Stormy weather
A                  G D
When we're together



And When I stay up late...
E|-----------------------------------------------0---0-------------|
B|-----------------------------------------------0---0-------------|
G|-----------------------------------------------1---4-------------|
D|-------7-7---7-7-----------5--5----------------2---5-------------|
A|-----------------------------------------------2---5-------------|
E|----5------5------5--3--3---------3--2--1--0---0---3-------------|
comments
print report bad tab
2 comments total.
0 reply
preds101 wrote on January 23 2015, 07:12 pm

Finish the song!

0 reply
werdnerd wrote on February 2 2016, 04:27 pm

Guitar 1

E|---------------------------------------------------------------|
B|---------------------------------------------------------------|
G|---------------------------------------------------------------|
D|----------7--7----5--4--2--0-----------------------------------|
A|---4s5h7-------4s5---------------------------------------------|
E|---------------------------------------------------------------

i think it's easier like this, especially with the finish on the A chord

I want to post or [tab]
guest
You may want to rate the tab now too:
select rating
Please do not post tabs as comments. Select "correction" instead!