Oops, an error
Loading. Please wait.

I Dont Know Bass Tab

version 1
version 1

Whole song

3,958 views 6 this week
no commentswrite comment
1 2 3 4 5
please rate
add to favorites
launch autoscroll
font size
0
reset
guitar tuner
Autoscroll
slow
fast
+/-
esc
set tempo
stop
Help us to improve Ultimate-Guitar.com Take our survey!
×
Contributor
Difficulty
intermediate
-----------------------------------------------------------------------------
			     I don't know - The Sheepdogs
-----------------------------------------------------------------------------

Tabbed By : Miguel
Hello fellow bassists! Sorry if this is anywhere unaccurate, this is my first tab on a 
song. If you have any suggestions or any sort of correction that will help me make this 
great song more accurate, please email me. Enjoy!

e-mail: migalf63@hotmail.com

Tuning: standard E A D G
Main Riff/chorus
G|---------------------------------------------------------------------------|
D|-------------------------9p7-----------------------------------------------|
A|------7---7------7-7---9---------------------------------------------------|
E|-------------7h9-----------------------------------------------------------|

G|---------------------------------------------------------------------------|
D|---------------------------------------------------------------------------|
A|------7---7------7---9-----------------------------------------------------|
E|-------------7h9----------7------------------------------------------------|

guitar solo/pre-chorus?

G|---------------------------------------------------------------------------|
D|-------------------------9p7-----------------------------------------------|
A|------7---7------7-7---9---------------------------------------------------|
E|-------------7h9-----------------------------------------------------------|

G|---------------------------------------------------------------------------|
D|---------------------------------------------------------------------------|
A|------7---7------7---9-----------------------------------------------------|
E|-------------7h9----------7------------------------------------------------|

G|---------------------------------------------------------------------------|
D|-------------------------9p7-----------------------------------------------|
A|------7---7------7-7---9---------------------------------------------------|
E|-------------7h9-----------------------------------------------------------|

G|---------------------------------------------------------------------------|
D|---------------------------------------------------------------------------|
A|------7---7------7---9-----------------------------------------------------|
E|-------------7h9----------7------------------------------------------------|
x8
G|---------------------------------------------------------------------------|
D|---------------------------------------------------------------------------|
A|----------------7----------------------------------------------------------|
E|-----7-7-7-5-7----5--------------------------------------------------------|

G|---------------------------------------------------------------------------|
D|---------------------------------------------------7-----------------------|
A|------7-------------------------55555-5---7---9----------------------------|
E|--7---------------77777-77777----------------------------------------------|

outro
G|---------------------------------------------------------------------------|
D|-------------------------9p7-----------------------------------------------|
A|------7---7------7-7---9---------------------------------------------------|
E|-------------7h9-----------------------------------------------------------|
                                  "Help me" then just fade away
G|--------------------------------|------------------------------------------|
D|--------------------------------|------------------------------------------|
A|------7---7------7---9----------|---------7--------------------------------|
E|-------------7h9----------7-----|-------------------5----------------------|

| /  slide up
| \  slide down
| h  hammer-on
| p  pull-off
| ~  vibrato
| +  harmonic
| x  Mute note
=============================================================================
Suggest correction new What's this?
You can suggest a correction to this tab. Community and Mods will review your correction and vote to approve or reject it.
comments
We did not receive enough feedback on this tab! Please rate:
print report bad tab
1 2 3 4 5
guest
You may want to rate the tab now too:
select rating
Please do not post tabs as comments. Select "correction" instead!