Oops, an error
Loading. Please wait.

I Dont Know Tab

version 1
version 1

Whole song

16,730 views 39 this week
3 commentsread comments
1 2 3 4 5
accurate
x 3
add to favorites
launch autoscroll
font size
0
reset
how to read this tab
guitar tuner
Tab Pro tools
  • play this tab
  • loop segment
  • change instrument
  • show fretboard
  • metronome
×
Best way to learn
"I Dont Know"
Autoscroll
slow
fast
+/-
esc
set tempo
stop
Contributor
Difficulty
novice
-----------------------------------------------------------------------------
                             
-----------------------------------------------------------------------------
Tabbed by: Colin Powell
Email:colinpowell111@hotmail.com

Tuning:Standard
Intro/Main Riff/Verse

e|---0-2p0-0-0--2-2-0----0-2p0-0-0--2--0-----------------------------|
B|---0-0-0-2-0--3-3-2----0-0-0-2-0--3--2-----------------------------|
G|-1-1-1-1-1-1--2-2-2--1-1-1-1-1-1--2--2-----------------------------|
D|-2-2-2-2-2-2--0-0-2--2-2-2-2-2-2--0--2-----------------------------|
A|-2-2-2-2-2-2------0--2-2-2-2-2-2-----0-----------------------------|
E|-0-0-0-0-0-0---------0-0-0-0-0-0-----------------------------------|

Intro Lead Riff
e|-----------------------------------------------------|
B|-5-7h5----------7-------2---5-7h5-------7---2--------|
G|-------6/4------7-------2---------6/4---7---2--------|
D|----------------7---7/2-2---------------7---2--------|
A|------------7/9--------------------------------------|
E|-----------------------------------------------------|

Verse riff
e|-0---2--0--------------------------------------------|
B|--0---0---------5------10----------------------------|
G|---1---1-----1/6---6/11------------------------------|
D|-----------------------------------------------------|
A|-----------------------------------------------------|
E|-----------------------------------------------------|


Bridge
e|-----------------------------------------------------|
B|-----------------------------------------------------|
G|-4-4-4-4-4--7----------------------------------------|
D|-4-4-4-4-4--7-7--------------------------------------|
A|-2-2-2-2-2--5-7--------------------------------------|
E|--------------5--------------------------------------|

Bridge lead
e|-----------------------------------------------------|
B|--7--------------------------------------------------|
G|--9b11-----------------------------------------------|
D|-----------------------------------------------------|
A|-----------------------------------------------------|
E|-----------------------------------------------------|

Pre-Solo
e|--------------------------------------------------------------------------|
B|--------------------------------------------------------------------------|
G|-11b13b11-9--9--11b13b11-9--9-9--9-9-11b13b11-9--9-11-11b13-11b14b11-9-9--|
D|--------------------------11-------------------11-------------------------|
A|--------------------------------------------------------------------------|
E|--------------------------------------------------------------------------|

2nd Guitar
e|-14b16b14-12-12-14b16b14-12--12-12--12-12-14b16b14-12--12-12-14-14b16---|
B|---------------------------14------------------------14-----------------|
G|------------------------------------------------------------------------|
D|------------------------------------------------------------------------|
A|------------------------------------------------------------------------|
E|------------------------------------------------------------------------|

e|14b17b14-12-12------|
B|--------------------|
G|--------------------|
D|--------------------|
A|--------------------|
E|--------------------|

Solo (Play bridge beneath)
e|------------------------------------------------------------------------|
B|-----------------------------12---12---12-15b17b15----12-------------12-|
G|-7/9-9/12-12/14--------12-14b--14b--14b------------14b--pb16b14p12---12-|
D|------------------12h14-------------------------------------------14----|
A|-5/7-7/10-10/12-14------------------------------------------------------|
E|------------------------------------------------------------------------|

e|-12-12-15b17b15-12-12----12------------------------------|
B|-------------------15b17-15b17-15-12-12----12------------|
G|-------------------------------------14b16-14b16-14-12---|
D|------------------------------------------------------14-|
A|---------------------------------------------------------|
E|---------------------------------------------------------|

e|-----------------------------------------------------|
B|-12----15-15-15p12-----------------------------------|
G|-14b16-------------14p12-----------------------------|
D|-------------------------14p12p14--------------------|
A|-----------------------------------------------------|
E|-----------------------------------------------------|

Post-Solo
e|-----------------------------------------------------------------------|
B|--------------3-3-5-----------3-3-5-------------------------------3-5--|
G|-----------2/4-4-----------2/4-4-4-----------------------------2/4-----|
D|--2--2p0h2------------2--2------------2--2-2-4-4-2-2-2---2--2p0--------|
A|------------------------------------------4-------4--------------------|
E|-0--0----------------0--0------------0--0---------------0--0-----------|

Guitar 2
e|-----------------------------------------------------|
B|-----------------------------------------------------|
G|-----7-----------------------------------------------|
D|-2---7-7---------------------------------------------|
A|-2---5-7---------------------------------------------|
E|-0-----5---------------------------------------------|

Pre-Outro
e|-0--3--5--5--7--8--9--10--11-----------------------------------------|
B|-0--3--5--5--7--8--9--10--11-----------------------------------------|
G|-1--4--6--6--8--9--10-11--12-----------------------------------------|
D|-2--5--7--7--9--10-11-12--13-----------------------------------------|
A|-2--5--7--7--9--10-11-12--13-----------------------------------------|
E|-0--3--5--5--7--8--9--10--11-----------------------------------------|

Outro Lead
e|-----------------------------------------------------|
B|----------------8------------------------------------|
G|-----------------------------------------------------|
D|-----------5h7/9-------------------------------------|
A|-----3h5/7-------------------------------------------|
E|-3h5-------------------------------------------------|

Outro

e|---0-2p0-0-0--2-2-0----0-2p0-0-0--2--0-----------------------------|
B|---0-0-0-2-0--3-3-2----0-0-0-2-0--3--2-----------------------------|
G|-1-1-1-1-1-1--2-2-2--1-1-1-1-1-1--2--2-----------------------------|
D|-2-2-2-2-2-2--0-0-2--2-2-2-2-2-2--0--2-----------------------------|
A|-2-2-2-2-2-2------0--2-2-2-2-2-2-----0-----------------------------|
E|-0-0-0-0-0-0---------0-0-0-0-0-0-----------------------------------|

Outro Lead
e|----------------------------------------------------------------|
B|----------------------------------------------------------------|
G|------------------------------------------------7h9p7/6-7p6h7-9-|
D|---------------------------------------------7h9----------------|
A|-------5h7p5/4-5p4h5-7-------5h7p5/4-5p4------------------------|
E|-0-5h7-----------------0-5h7------------5--0--------------------|

e|-----------------------------------------|
B|-----------------------------------------|
G|--------7h9p7/6-7------------------------|
D|----7h9----------------------------------|
A|-----------------------------------------|
E|--0--------------------------------------|
comments
We did not receive enough feedback on this tab! Please rate:
print report bad tab
1 2 3 4 5
3 comments total.
+1 reply
bjorgein wrote on August 9 2011, 11:16 am

Tab looks good, I am a beginner but the intro isn't just all straight E. It is kinda a diddle around the E chord. I don't know what it is but it only took me a few minutes to figure out!

0 reply
Soccerguy wrote on August 10 2011, 11:42 am

I noticed that too, but I wasn't quite sure, so I just left it to the player to decide.

0 reply
NonGigger wrote on February 6 2014, 12:23 pm

CAN YOU TAB OUT OH KILLEM NEXT ?

I want to post or [tab]
guest
You may want to rate the tab now too:
select rating
Please do not post tabs as comments. Select "correction" instead!