Oops, an error
Loading. Please wait.

I Dont Know Bass Tab

version 2
version 2

Whole song

3,862 views 3 this week
no commentswrite comment
1 2 3 4 5
accurate
x 4
add to favorites
launch autoscroll
font size
0
reset
guitar tuner
Autoscroll
slow
fast
+/-
esc
set tempo
stop
Help us to improve Ultimate-Guitar.com Take our survey!
×
Author
Difficulty
novice
(/) Slide Up  (\) Slide Down  (h) Hammer On  (p) Pull Off  (b) Bend (r) Release (v) Vibrato

Intro
E|--------|
B|--------|
G|--------|
D|--------|
A|--5-----|
E|-----5--|


Verse
E|-----------------------------|
B|-----------------------------|
G|-----------------------------|
D|-----------------------7--5--|
A|--7--7--5h7-7--5--7----------|
E|-----------------------------|

E|-----------------------|
B|-----------------------|
G|-----------------------|
D|-----------------------|
A|--7--7--5h7-7--5-------|
E|--------------------5--|


Bridge
E|-----------------------|
B|-----------------------|
G|-----------------------|
D|-----------------0-----|
A|--2--2--2--2--2-----0--|
E|-----------------------|


Solo
Play Verse through first part of solo, then play this section
E|-----------------------|
B|-----------------------|
G|-----------------------|
D|-----------------------|
A|--7--7--7--7--7--5-----|
E|--------------------5--|

E|---------------------------------------------------------------------|
B|---------------------------------------------------------------------|
G|---------------------------------------------------------------------|
D|---------------------------------------------------------------------|
A|--7------------------------------------------------------------------|
E|-----3---5-5-5-5-5---5-5-5-5-5---7-7-7-7-7---8--9--10--11------------|

Back to verse a couple of times and then the song is finished.
Suggest correction
comments
print report bad tab
guest
You may want to rate the tab now too:
select rating
Wanna post a correction for this tab? Suggest correction