Oops, an error
Loading. Please wait.

I Dont Know Tab

version 2
version 2

Whole song

27,627 views 12 this week
2 commentsread comments
1 2 3 4 5
excellent!
x 11
add to favorites
launch autoscroll
font size
0
reset
how to read this tab
guitar tuner
Autoscroll
slow
fast
+/-
esc
set tempo
stop
Help us to improve Ultimate-Guitar.com Take our survey!
×
Contributor
Difficulty
intermediate
Artist:The Sheepdogs
Song:I dont Know

Standard Tuning 

Intro/Verse/Chorus Riff:

Gtr.1 (Acoustic/Electric)                          (hold)

-------0--2p0-------2-2--------|-------0--2p0-------2----------|
-------0--0-0-2p0---3-3--2-----|-------0--0-0-2p0---3----2-----|
-------1------------2-2--2-----|-------1------------2----2-----|
--2-----------------0-0--2-----|--2-----------------0----2-----|
--2----------------------0-----|--2----------------------0-----|
--0----------------------------|--0----------------------------|

Gtr.2 (Clean Lead Guitar)
                       
-------------------------------|-------------------------------|
-------------------------------|--------------------7----5-----|
-------9-11p9----------7-4h6---|-------9-11p9-------7----6-----|
--------------11p9-7h9-------7-|--------------11p9--7----7-----|
--7----------------------------|--7----------------------------|
-------------------------------|-------------------------------|

Gtr. 2 (Chorus Riff)     Repeat 3x   (On 4th time play this)

----0-----0-----0-------0----------||----0-----0-----0-------0-------0-|
------0-----0------------------10--||------0-----0-----------------0---|
----------------------7-----------.||---------------------7-----6------|
--6-----6-----6---6/7-----9/11----.||--6-----6-----6---6/7-----7-------|
-----------------------------------||----------------------------------|
-----------------------------------||----------------------------------|


Bridge Riff:

Gtr.1 (Dist)            Repeat 4x
  B                 D   A
---------------------------------||
--4-4-4-4-4---------7\\\2--------||
--4-4-4-4-4---------7\\\2-------.|| 
--4-4-4-4-4---------7\\\2-------.||
--2-2-2-2-2---------5\\\0--------||
---------------------------------||

Gtr.2 (Dist) On 3rd time
            (let Ring)
--------------------------------|
--------------------------------|
-------------10b11--------------|  
--------------------------------|
--------------------------------|
--------------------------------|


Guitar Solo: (played over Intro/Verse Riff)

Gtr.1                                                        
-------------------------------------|
-------------------------------------|
--11b13r11-9--9--11b13r11-9----9-9-9-|
----------------------------11-------|
-------------------------------------|
-------------------------------------|
                       ^      ^   
---------------------------------------------|
---------------------------------------------|
-11b13r11-9----9-9--11b13-11b13-11b13r11-9-9-|
------------11-------------------------------|
---------------------------------------------|
---------------------------------------------|


Both Guitars in unison...

Gtr.1                                                             
-----------------------------------------------------------------------|
-----------------------------------------------------------------------|
--11b13r11--9----9--11b13r11-9----9--9--9--11b13r11-9-----9--9---11b13-|
--------------11---------------11---------------------11---------------|
-----------------------------------------------------------------------|
-----------------------------------------------------------------------|
                                                                             
Gtr.2                                                             (hold)                          
--14b16r14-12----12-14b16b14-12----12-12-12-12b14r12-12----12-12--12b14-|
--------------14----------------14----------------------14--------------|
------------------------------------------------------------------------|
------------------------------------------------------------------------|
------------------------------------------------------------------------|
------------------------------------------------------------------------|
                                                                        
Gtr.1 
---------------------------------------------------------|
-------------------------------------12-12-12--12-12-12--|
-7/9-9-9-12/14-14-14--------12-14b16-14b16(16)-14b16(16)-|
-X/x-x-x-x-/x--x--x---12h14------------------------------|
-5/7-7-7-10/12-12-12-------------------------------------|
---------------------------------------------------------|

-----------------------------------|
-15b17r15p12-12-12-----------------|
----------14b16r14-12h14p12----12~-|
----------------------------14-----|
-----------------------------------|
-----------------------------------|

Gtr.2 (plays throughout rest of solo)
 
---------------------------------|
-9-9-9-9-9------------7----------|
-9-9-9-9-9------------7-------6--|
-9-9-9-9-9------------7-------7--|
-7-7-7-7-7------------5-------7--|
------------------------------5--|

Gtr.1
 
-15b17(17)17r15-12----------------------------|
-------------------15b17(17)17r15-12----------|
-------------------------------------14B16R14-|
----------------------------------------------|
----------------------------------------------|
----------------------------------------------|

---------------------------------------------|
----12---------15----------------------12-12-|
-12-12--14B16-----14B16R14-12-14p12----12-12-|
------------------------------------14-------|
---------------------------------------------|
---------------------------------------------|

Gtr.1 Cont...
 
------------------------------------|
----------------------3///5~--------|
-------------------4----------------|
-------2---2---2--------------------|
------------------------------------|
-7\0-0---0---0----------------------|

------------------------------------------------|
--------------------3-3--3-3-3-3////6-----------|
--------------2///4------4-4-4-4////5-----------|
-------2---2------------------------------------|
------------------------------------------------|
-7\0-0---0--------------------------------------|


Gtr.1 Cont...
Let Ring)
-----------------------------------|
-----------------------------------|
-----------------------------------|
-------2---2-2-------4-2------2-2--|
---------------3h4---------4-------|
-7\0-0---0-------------------------|


-------------------------------------------------|
-------------------------3-------5---------------|
-------------------------4-------6---------------|
----2---2---2////4-------------------------------|
---------------------------------------7---------|
--0---0---0----------------------------0---------|


Gtr.1 Cont...
---------------------------------|
------------------------------8~-|
----------------------------7----|
----------------------5h7/9------|
-(7)------5-------5h7------------|
-(0)------3---5/7----------------|

----------------------------------------------|
----------------------------------------------|
-6-6-6-6-6-6-----6-6-6-6-6-6-----8-8-8-8-8-8--|
-5-5-5-5-5-5-----5-5-5-5-5-5-----7-7-7-7-7-7--|
-7-7-7-7-7-7-----7-7-7-7-7-7-----9-9-9-9-9-9--|
-5-5-5-5-5-5-----5-5-5-5-5-5-----7-7-7-7-7-7--|

                 (Let Ring)
---------------------------|
---------------------------|
-9---10--11--12--13--------|
-8---9---10--11--12--------|
-10--11--12--13--14--------|
-8---9---10--11--12--------|


Outro Riff: (played with Main Riff)

Gtr.2
------------------------------------------------------------|
------------------------------------------------------------|
------------------------------------------------------------|
------------------------------------------------------------|
----------7---5p4-5p4-5p4//7~------------7---5p4-5p4-5p4----|
--0-3/4-7---7--------------------0-3/4-7---7-------------5~-|

Gtr.2
------------------------------------------------------------|
------------------------------------------------------------|
----------9---7p6-7p6-7p6///9------------9---7p6-7p6--6~----|
----5/6-9---9----------------------5/6-9---9----------7~----|
------------------------------------------------------------|
--0---------------------------------------------------------|

Lyrics:

Never had I heard Im going to stop you there
Rolling off the lawn, I never felt so quite disturbed

I get up in the morning
I dont know
Waiting for the evening
I dont know
Looking for the evening
I dont know
Will someone please 
tell me

Looking back at me is more a mystery
Pages and pages of ancient history


I get up in the morning
I dont know
Waiting for the evening
I dont know
Looking for the evening
I dont know
Will someone please
tell me

I dont know
Tell me
I dont know (I dont know)
Tell me


I dont know
Tell me
I dont know (I dont know)
Tell me

I dont know
Tell me
I dont know (I dont know)
Tell me 

comments
print report bad tab
2 comments total.
+1 reply
x WHiCKER x 58 wrote on August 28 2012, 12:52 am

Gtr.1 Cont... is wrong, its supposed to be this:

---------------------------------|
------------------------------8~-|
---------------------------------|
------------------------5h7/9----|
-(7)------5-------3h5/7----------|
-(0)------3---3h5----------------|

Outro Riff: (played with Main Riff)

Gtr.2
-----------------------------------------------------------|
-----------------------------------------------------------|
-----------------------------------------------------------|
-----------------------------------------------------------|
---------5h7-5\4-5p4-5-5/7~------------5h7-5\4-5p4---------|
12\0-5h7-------------------------0-5h7-------------5~------|

Gtr.2
-----------------------------------------------------------|
-----------------------------------------------------------|
-------7h9-7\6-7p6-7-7/9~-----------7h9-7\6-7p6~-----6~----|
---7h9--------------------------7h9------------------7~----|
-----------------------------------------------------------|
-0----------------------------0----------------------------|

0 reply
A Tua Prima 772 wrote on March 15 2013, 06:30 pm

More Sheepdogs!!!

I want to post or [tab]
guest
You may want to rate the tab now too:
select rating
Please do not post tabs as comments. Select "correction" instead!