Oops, an error
Loading. Please wait.

I Dont Know Bass Tab

version 3
version 3

Whole song

1,109 views 1 this week
no commentswrite comment
1 2 3 4 5
2 more votes to show rating
add to favorites
launch autoscroll
font size
0
reset
guitar tuner
Autoscroll
slow
fast
+/-
esc
set tempo
stop
Help us to improve Ultimate-Guitar.com Take our survey!
×
Author
Difficulty
novice
Tuning: standard E A D G

Intro: Guitar starts - Bass comes in on beat 7.
G|-------------------------------------------------------------------------|
D|-------------------------------------------------------------------------|
A|-----5-------------------------------------------------------------------|
E|--------5----------------------------------------------------------------|


Riff 1:
G|-------------------------------------------------------------------------|
D|---------------------------7--5------------------------------------------|
A|------7--7--5h7-7----5--7------------------------------------------------|
E|-------------------------------------------------------------------------|

Riff 2:
G|-------------------------------------------------------------------------|
D|-------------------------------------------------------------------------|
A|------7--7--5h7-7----5---------------------------------------------------|
E|-----------------------5-------------------------------------------------|

Repeat Riff 1 & 2 alternating until Chorus.

Chrous: Riff 1 x3
        Riff 2 x1

Bridge:
G|-------------------------------------------------------------------------|
D|-------------------------------------------------------------------------|
A|------2-2-2-0-2---5----0-------------------------------------------------|
E|-------------------------------------------------------------------------|

Solo Riff: 8x
G|-------------------------------------------------------------------------|
D|-------------------------------------------------------------------------|
A|------7-7-7-5-7---5------------------------------------------------------|
E|---------------------5---------------------------------------------------|

Solo Outro:
G|-------------------------------------------------------------------------|
D|-------------------------------------------------------------------------|
A|--7---------10----------1212121212--1212121212--1414141414--15-16-17-18--|
E|-------------------------------------------------------------------------|


Tabbed by Travis


| /  slide up
| \  slide down
| h  hammer-on
| p  pull-off
| ~  vibrato
| +  harmonic
| x  Mute note
Suggest correction
Give kudos to tab author, rate the tab!
1 2 3 4 5
comments
print report bad tab
guest
You may want to rate the tab now too:
select rating
Wanna post a correction for this tab? Suggest correction