Oops, an error
Loading. Please wait.

I Dont Know Tab

version 3
version 3

Whole song

1,770 views 1 this week
no commentswrite comment
1 2 3 4 5
2 more votes to show rating
add to favorites
launch autoscroll
font size
0
reset
how to read this tab
guitar tuner
Autoscroll
slow
fast
+/-
esc
set tempo
stop
Help us to improve Ultimate-Guitar.com Take our survey!
×
Difficulty
Tuning
novice
E B E G# B E
Intro
    E            D   A  E E          D  A
e|----0--2p0-----2-2-0----0--2p0-----2--0-|
B|----0-----2p0--3-3-2----0-----2p0--3--2-|
G|----1----------2-2-2----1----------2--2-|  X4
D|--2------------0-0-2--2------------0--2-|
A|--2----------------0--2---------------0-|
E|--0-------------------0-----------------|

Basically, the riff and chords above are played for all the verses.

Here's the chorus tab:
    E E          D        A
e|----0--2p0-----2--2-----0--|
B|----0-----2p0--3--3-----2--|
G|----1----------2--2-----2--| X3
D|--2------------0--0-----2--|
A|--2---------------------0--|
E|--0------------------------|
                 I  don't know
   E E          D  E
e|---0--2p0-----2----0-|
B|---0-----2p0--3----2-|
G|---1----------2----2-|  X4
D|-2------------0----2-|
A|-2-----------------0-|
E|-0-------------------|
                Tell me

Three "I don't know's" and then one "Tell me".


The solo is in E major AND minor pentatonic.
Suggest correction
Give kudos to tab author, rate the tab!
1 2 3 4 5
comments
print report bad tab
guest
You may want to rate the tab now too:
select rating
Wanna post a correction for this tab? Suggest correction