Oops, an error
Loading. Please wait.

Ii Baby I Wont Do You No Harm Tab

1,447 views 1 this week
no commentswrite comment
1 2 3 4 5
excellent!
x 3
add to favorites
launch autoscroll
font size
0
reset
how to read this tab
guitar tuner
Autoscroll
slow
fast
+/-
esc
set tempo
stop
Help us to improve Ultimate-Guitar.com Take our survey!
×
Author
Difficulty
Tuning
novice
D# G# C# F# A# D#
Song: ii. Baby, I Won't Do You No Harm - The Sheepdogs
Album: Learn and Burn (2010)
Made in Canada

One piece of advice is to use the 5th string root bar chord positions for Dm7.

Enjoy!


Verse (x3)
    C                                 F
e|-/8-x-x-8-x-8--8---------8----------1-x-x-1-x-1--1-------1----------|
B|-----------------10------8--10-8-------------------3-----1----------|
G|---------------------8b------------------------------1b-------------|
D|--------------------------------------------------------------------|
A|--------------------------------------------------------------------|
E|--------------------------------------------------------------------|

                             C
I see you standing on the corner,
                              F
You see me running down the street.
                                             C
These high school kids are stealing street signs,
                               F
Little sister quick upon her feet.
                           C
You got me searching all over;
                              F
Im searching hard for what I want.

Chorus
G

Dm7                                    G
Don't be late, baby I won't do you no harm.
Dm7                  C
Why don't you stay? Baby don't keep putting me off.

Riff

e|-------------------------------------------------|
B|-------------------------------------------------|
G|-------------------------------------------------|
D|-------------------------------------------------|
A|-------------------------------------------------|
E|--3--1-1--3--1-1-x-3--1-3--1-1--3--1-1-3--1-1-3--|

Verse (x3)
    C                                 F
e|-/8-x-x-8-x-8--8---------8----------1-x-x-1-x-1--1-------1----------|
B|-----------------10------8--10-8-------------------3-----1----------|
G|---------------------8b------------------------------1b-------------|
D|--------------------------------------------------------------------|
A|--------------------------------------------------------------------|
E|--------------------------------------------------------------------|

                                C
Your only scratching at the surface,
                          F
You go all in before you fold.
                             C
Try to describe the local colour,
                           F
'Scuse me if I may be so bold.
                          C
I go and catch another prisoner,
                 F
(not quite sure..)

Chorus
G

Dm7                                              G
Why don't you stay? Baby don't keep putting me off.
Dm7             C
Don't be late, baby I won't do you no harm.


 Riff (x3)

e|-----------------------------------|
B|-----------------------------------|
G|-----------------------------------|
D|-----------------------------------|
A|-----------------------------------|
E|--3--1-1--3--1-1-x-3--1-3--1-1-----|


e|------------|
B|------------|
G|------------|
D|-5-5-5-5-5--|
A|-5-5-5-5-5--|
E|-3-3-3-3-3--|

*Continues onto iii. We'll Get There (Medley)*


 ************************************

| /   slide up
| \   slide down
| h   hammer-on
| p   pull-off
| ~   vibrato
| +   harmonic
| x   Mute note
| b   Bend
| pb  Pre-bend
| br  Bend release
| pbr Pre-bend release
| brb Bend release bend

************************************
Suggest correction
Give kudos to tab author, rate the tab!
1 2 3 4 5
comments
print report bad tab
guest
You may want to rate the tab now too:
select rating
Wanna post a correction for this tab? Suggest correction