Oops, an error
Loading. Please wait.

Laid Back Tab

2,539 views 3 this week
no commentswrite comment
1 2 3 4 5
excellent!
x 5
add to favorites
launch autoscroll
font size
0
reset
how to read this tab
guitar tuner
Tab Pro tools
  • play this tab
  • loop segment
  • change instrument
  • show fretboard
  • metronome
Autoscroll
slow
fast
+/-
esc
set tempo
stop
Contributor
-------------------------------------------------------------------------------
                             Laid Back - The Sheepdogs
-------------------------------------------------------------------------------

Tuning:Standard
Chords Used
G 320033, 355433
F X03210
Em 022000
A 002220, 577655
C 032010, X35553, 81010988
Bb X13331


Intro

e|------------------3-----------------------------------------------------------|
B|------------------3-----------------------------------------------------------|
G|------------------0-----------------------------------------------------------|
D|----7s9-9s7-5-----0-----------------------------------------------------------|
A|--------------7-- 2-----------------------------------------------------------|
E|------------------3-----------------------------------------------------------|




G                                F
Wish I knew just what to do when trouble really starts
          Em              A
You can't hold it in your mind
          Em                  A
You can't run it on down that line
         C
It's not made that way by design

G
I filled it up from your lovin cup
        F
When my back's already against the wall
          Em                A
I've been humbled like this before
          Em               A
You can't walk on out that door
         C
It's not made that way anymore

Chorus

e|--3--3-3--3--3-3---------5-5-5--5--5--5------------------------------------------|
B|--3--3-3--3--3-3---------5-5-5--5--5--5------------------------------------------|
G|--4--4-4--4--4-4----X2---6-6-6--6--6--6------X2----------------------------------|
D|--3--3-3--3--3-3---------5-5-5--5--5--5------------------------------------------|
A|--5--5-5--7--5-5---------7-7-7--9--7--7------------------------------------------|
E|--3--3-3--3--3-3---------5-5-5--5--5--5------------------------------------------|



       G                                    A
So I'm laid back, take me back to where I'm laying back
        F                C
There's trouble on every track
                G                    Bb  C
So just keep it laid back
G                                    A
Laid back, take me back to where I'm laying back
        F                C
There's trouble on every track
                G                    Bb  C
So just keep it laid back


G                                      F
Wakin time's a weightless time tell me who you really are
            Em                A
You've been racing cross your mind
          Em             A
You can't rush to make a dime
          C
I'll just idly bide my time

       G                                    A
So I'm laid back, take me back to where I'm laying back
        F                C
There's trouble on every track
                G                    Bb  C
So just keep it laid back
G                                    A
Laid back, take me back to where I'm laying back
        F                C
There's trouble on every track
                G                    Bb  C
So just keep it laid back

G    Bb C

Solo
G F Em A Em A C
e|------------------------------8b----12----------------------------------------------|
B|--3---3--3---3-------------6---------12---------15----------------------------------|
G|--5b--5b-5b--5b--3-----3s7------------12--14b-----14r--14-14p12---12----------------|
D|--------------------5--------------------------------------------14---12h14--12-----|
A|------------------------------------------------------------------------------------|
E|------------------------------------------------------------------------------------|

e|-----------------------------------8---10---12-------------------------------------|
B|-----------------------------------8---10---12-------------------------------------|
G|----------------------------------s9---11---13-------------------------------------|
D|-----------------------------------------------------------------------------------|
A|--------10---10h12-10------------------------------- ------------------------------|
E|-10h12------------------12s0-------------------------------------------------------|

       G                                    A
So I'm laid back, take me back to where I'm laying back
        F                C
There's trouble on every track
                G                    Bb  C
So just keep it laid back
G                                    A
Laid back, take me back to where I'm laying back
F              C             G             Bb      C
There's trouble on every track, yaaaa yaaaa


G          A          C
Laid back, laid back, laid back
G          A          C         G
Laid back, laid back, laid back

Outro

e|-----------------------------------------------------------------------------|
B|-3h5-3--3h6--5--3h5-3--6s8--8--8s12-------10-----5s8-------------------------|
G|-----------------------------------------------------------------------------|
D|-----------------------------------------------------------------------------|
A|-----------------------------------------------------------------------------|
E|-----------------------------------------------------------------------------|
comments
print report bad tab
I want to post or [tab]
guest
You may want to rate the tab now too:
select rating
Please do not post tabs as comments. Select "correction" instead!