Oops, an error
Loading. Please wait.

The Way It Is Tab

458 views 1 this week
no commentswrite comment
1 2 3 4 5
please rate
add to favorites
launch autoscroll
font size
0
reset
how to read this tab
guitar tuner
Tab Pro tools
  • play this tab
  • loop segment
  • change instrument
  • show fretboard
  • metronome
×
Best way to learn
"The Way It Is"
Autoscroll
slow
fast
+/-
esc
set tempo
stop
Contributor
Difficulty
novice
-------------------------------------------------------------------------------
                             The way it is - The Sheepdogs
-------------------------------------------------------------------------------
Tabbed by: David Applin
E-mail:

Tuning: EADGBE

e|------------------------------------------|
B|------------------------------------------|
G|------------------------------------------|
D|------------------------------------------|
A|------------------------------------------| x2(second time
E|--3-5\----3-5\----3-5\----3-5\------------| without slide)

e|------------------------------------------|
B|------------------------------------------|
G|------------------------------------------|
D|------------------------------------------|
A|---------3-5-----------3-5----------------|
E|--3-5-----------3-5-----------------------|x2

e|------------------------------------------|
B|------------------------------------------|
G|--6--4-7----6--4-7----6--4-7----6--4-7----|
D|--7--5-7----7--5-7----7--5-5----7--5-5----|
A|--7--5-5----7--5-5----7--5-5----7--5-5----|
E|--5--2------5--2------5--2------5--2------|
or
e|-----3-2-------3-2-------3-2-------3-2----|
B|--2--0-3----2--0-3----2--0-3----2--0-3----|
G|--2--0-2----2--0-2----2--0-2----2--0-2----|
D|--2--0-0----2--0-0----2--0-0----2--0-0----|
A|--0--2------0--2------0--2------0--2------|
E|-----3---------3---------3---------3------|

e|---------------------|
B|---------------------|
G|---------------------|
D|------7--5--7-5-7--5-|
A|---------------------|
E|--3-5----------------|x4

e|-------------------------------------------|
B|-------------------------------------------|
G|-------------------------------------------|
D|-------------------------------------------|
A|-------------------------------------------|
E|--3-5----3-5----3-5----3-5-----------------|

e|-------------------------------------------|
B|-------------------------------------------|
G|-------------------------------------------|
D|-------------------------------------------|
A|---------3-5-----------3-5-----------------|
E|--3-5-----------3-5------------------------|

e|-------------------------------------------|
B|-------------------------------------------|
G|--6--4-7----6--4-7----6--4-7----6--4-7-----|
D|--7--5-7----7--5-7----7--5-5----7--5-5-----|
A|--7--5-5----7--5-5----7--5-5----7--5-5-----|
E|--5--2------5--2------5--2------5--2-------|
or
e|-----3-2-------3-2-------3-2-------3-2-----|
B|--2--0-3----2--0-3----2--0-3----2--0-3-----|
G|--2--0-2----2--0-2----2--0-2----2--0-2-----|
D|--2--0-0----2--0-0----2--0-0----2--0-0-----|
A|--0--2------0--2------0--2------0--2-------|
E|-----3---------3---------3---------3-------|

e|-------------------------------------------|
B|-------------------------------------------|
G|-------------------------------------------|
D|-------------------------------------------|
A|---------3-5-----------3-5-----------------|
E|--3-5-----------3-5------------------------|

(solo: A pentatonic)

e|-------------------------------------------|
B|-------------------------------------------|
G|-------------------------------------------|
D|-------------------------------------------|
A|-------------------------------------------|
E|--3-5----3-5----3-5----3-5-----------------|

************************************

| /   slide up
| \   slide down
| h   hammer-on
| p   pull-off
| ~   vibrato
| +   harmonic
| x   Mute note
| b   Bend
| pb  Pre-bend
| br  Bend release
| pbr Pre-bend release
| brb Bend release bend

************************************
comments
We did not receive enough feedback on this tab! Please rate:
print report bad tab
1 2 3 4 5
I want to post or [tab]
guest
You may want to rate the tab now too:
select rating
Please do not post tabs as comments. Select "correction" instead!