Oops, an error
Loading. Please wait.

Rebel Heart Chords

364 views 21 this week
no commentswrite comment
1 2 3 4 5
2 more votes to show rating
add to favorites
launch autoscroll
font size
0
reset
transpose
0
reset
display chords
guitar tuner
Autoscroll
slow
fast
+/-
esc
set tempo
stop
Help us to improve Ultimate-Guitar.com Take our survey!
×
Author
Difficulty
novice
About this tab version
Chord and Lyrics (with tabbed portions). Was this info helpful? Yes No
Intro x 2
 

e|------------------------------------------------------------------------------------|
B|---------------------------------------------------------13--------------15--15-13--|
G|---------------10--------------12--12-10--------12-14-----------12-14---------------|
D|------10-12-----------10-12-----------------12--------12-----12-------12------------|
A|--10--------10-----10-------10------------------------------------------------------|
E|------------------------------------------------------------------------------------|

e|------------------------------------------------------------------------------------|
B|---------------11--------------13--13-11--------------------------------------------|
G|------10-12-----------10-12------------------------------10--------------12--12-10--|
D|--10--------10-----10-------10------------------10-12-----------10-12---------------|
A|--------------------------------------------10--------10-----10-------10------------|
E|------------------------------------------------------------------------------------|

 
G                         Dm
She's up against them all, but the writing is on the wall
C                                  G
It's more than meets the eye with her
G                         Dm
There's nothing I can do - I'm left without a clue
C                                      G  (Stop Drums)
She sees it all in black and white…or blue


Chorus:
e|-------------------------------------------------------|
B|-------------------------------------------------------|
G|-14--14-----12--12-----12--12----12----12----12--------|
D|--------15---------14---------15----15----15----15-----|
A|-------------------------------------------------------|
E|-------------------------------------------------------|


F            C      G     F            C      G
She's got a rebel heart, one day she's gonna fall
F            C      G     F         C          G
She's got a rebel heart; she's up against them all.


Repeat Intro x1


G                      Dm
No she never will admit, that what she wants she never gets
C                             G
She never knows just when to quit.
G                       Dm
A star lit up the skies - her heart is where her fire lies
C                          G
You see it in her painted eyes.


Chorus:

F            C      G    F             C      G
She's got a rebel heart, one day she's gonna fall…
F            C      G    F          C          G
She's got a rebel heart; she's up against them all.


Repeat Intro x1

G                 Dm         C                  G
She don't seem to understand what she wants to do.
G             Dm           C                G (Stop Drums)
Light a fire, hit and run - like the rebels do.


SOLO: F C G x5


Bass Guitar
G                               Dm
She wants to overthrow our love, maybe too much ain’t enough…
C                          G
And we won't make it out alive.
G                       Dm                           C
She's got a rebel heart; she's had it from the start
                      G              
Out there on the run again.  
 

Chorus:   
        
F            C      G    F            C      G
She's got a rebel heart, one day she's gonna fall…
F            C      G    F          C          G
She's got a rebel heart; she's up against them all.


Intro x1

Fin. 


Thanks to pinolabe 32 for tabbed parts.
Suggest correction
Give kudos to tab author, rate the tab!
1 2 3 4 5
comments
print report bad tab
guest
You may want to rate the tab now too:
select rating
Wanna post a correction for this tab? Suggest correction