Oops, an error
Loading. Please wait.

Rebel Heart tab

1,114 views 51 this week
no commentswrite comment
1 2 3 4 5
x 4
add to favorites
×
Save as Personal and add changes to this tab that will be seen only by you. Learn more ›
×
You can save this tab as Personal to edit and correct it or add notes. All changes will be seen only by you. Learn more »
launch autoscroll
font size
0
reset
how to read this tab
guitar tuner
edit
Autoscroll
slow
fast
+/-
esc
set tempo
stop
Author
About this tab version
The piano part in the verse is transferred to guitar shown here. Written for 1 or 2 guitars. Was this info helpful? Yes No
This is originally played on a 12 string and with a piano playing the chords, so listen to what the piano is 
doing to get the strumming pattern.  I pretty much do straight quarter notes (8 per chord).

     ROADMAP
Intro x2
Verse x2
Chorus x4
Intro x1
Verse x2
Chorus x4
Intro x3
Solo
Bridge x2
Chorus x4
Intro x1


[Intro] (x2)

e|------------------------------------------|
B|------------------------------------------|
G|---------------10--------------12--12-10--|
D|------10-12-----------10-12---------------|
A|--10--------10-----10-------10------------|
E|------------------------------------------|

e|------------------------------------------|
B|---------------13--------------15--15-13--|
G|------12-14-----------12-14---------------|
D|--12--------12-----12-------12------------|
A|------------------------------------------|
E|------------------------------------------|

e|------------------------------------------|
B|---------------11--------------13--13-11--|
G|------10-12-----------10-12---------------|
D|--10--------10-----10-------10------------|
A|------------------------------------------|
E|------------------------------------------|

e|------------------------------------------|
B|------------------------------------------|
G|---------------10--------------12--12-10--|
D|------10-12-----------10-12---------------|
A|--10--------10-----10-------10------------|
E|------------------------------------------|


[Verse] (x2)

e|-10-|-10-|-8--|-10-|
B|-12-|-10-|-8--|-12-|
G|-12-|-10-|-9--|-12-|
D|-12-|-12-|-10-|-12-|
A|-10-|-12-|-10-|-10-|
E|----|-10-|-8--|----|
   G    Dm   C    G


[Chorus]

(rhythm)(x4)
e|---------------------------------------------------------------------------|
B|---------------------------------------------------------------------------|
G|-------------5--5--5--5----------------------------------------------------|
D|-3--3--3--3--5--5--5--5--5--5--5--5----------------------------------------|
A|-3--3--3--3--3--3--3--3--5--5--5--5----------------------------------------|
E|-1--1--1--1--------------3--3--3--3----------------------------------------|

(lead)
e|---------------------------------------------------------------------------|
B|---------------------------------------------------------------------------|
G|-14--14-----12--12-----12--12----12----12----12----------------------------|
D|--------15---------14---------15----15----15----15-------------------------|
A|---------------------------------------------------------------------------|
E|---------------------------------------------------------------------------|

[Bridge]  (x2)
e|----|----|----|----|
B|----|----|----|----|
G|----|----|----|----|
D|-12-|----|----|-12-|
A|-10-|-12-|-10-|-10-|
E|----|-10-|-8--|----|
   G5   D5   C5   G5
For the second ending, only play the last G5 4 times (instead of 8) and play this:

e|-------------------|
B|-------------------|
G|-------------------|
D|-------10-------10-|
A|-10-12----10-12----|
E|-------------------|


Suggest correction
Creating personal tab
Creating personal tab
You can edit any tab online and save it as your Personal.

You can edit, replace or remove any tab part or add personal notes – all changes will be seen only by you.

Personal tabs can be accessed anytime from any device, even offline.
Learn more »
comments
print report bad tab
guest
You may want to rate the tab now too:
select rating
Wanna post a correction for this tab? Suggest correction