Oops, an error
Loading. Please wait.

Chasing Shadows tab

970 views 24 this week
1 commentread comment
1 2 3 4 5
1 last vote to show rating
add to favorites
×
Save as Personal and add changes to this tab that will be seen only by you. Learn more ›
×
You can save this tab as Personal to edit and correct it or add notes. All changes will be seen only by you. Learn more »
launch autoscroll
font size
0
reset
how to read this tab
guitar tuner
edit
Autoscroll
slow
fast
+/-
esc
set tempo
stop
Author
Difficulty
ARTIST: THE SHERLOCKS
ALBUM: FIRST BITE OF THE APPLE
SONG: CHASING SHADOWS
YOUTUBE: https://www.youtube.com/watch?v=NXwTZSv2mh4

C# - X-4-6-6-6-4
F# - 2-4-4-3-2-2 or X-9-11-11-11-9

Intro

Josh Davidson (Lead)

e |----------------------------------------------------------|
B |----------------------------------------------------------|
G |--10----10------10--------13----11----10------------------|
D |------11-----11-------11-----------------------11----13---|
A |----------------------------------------------------------|
E |----------------------------------------------------------|

e |----------------------------------------------------------|
B |----------------------------------------------------------|
G |--10----10------10--------13----11----10------------------|
D |------11-----11-------11-----------------------11----13---|
A |----------------------------------------------------------|
E |----------------------------------------------------------|

e |----------------------------------------------------------|
B |----------------------------------------------------------|
G |-----------------------------------11--11---10------------|
D |--11----11------11--------------------------------11---13-|
A |------13-----13-------13----------------------------------|
E |----------------------------------------------------------|

e |----------------------------------------------------------|
B |-----------------------------------14--14---11------------|
G |-------------------------------------------------13--10---|
D |--11----11------11----------------------------------------|
A |------13-----13-------13----------------------------------|
E |----------------------------------------------------------|

Kiaran Crook (Rhythm)

C# - F# - C# - F#


Verse

'Is there anybody over there or are you following me...'

Josh Davidson & Kiaran Crook

C# - F# - C# - F#


Break

Josh Davidson (Lead)

e |----------------------------------------------------------|
B |----------------------------------------------------------|
G |--10----10------10--------13----11----10------------------|
D |------11-----11-------11-----------------------11----13---|
A |----------------------------------------------------------|
E |----------------------------------------------------------|

e |----------------------------------------------------------|
B |----------------------------------------------------------|
G |--10----10------10--------13----11----10------------------|
D |------11-----11-------11-----------------------11----13---|
A |----------------------------------------------------------|
E |----------------------------------------------------------|

e |----------------------------------------------------------|
B |----------------------------------------------------------|
G |-----------------------------------11--11---10------------|
D |--11----11------11--------------------------------11---13-|
A |------13-----13-------13----------------------------------|
E |----------------------------------------------------------|

e |----------------------------------------------------------|
B |-----------------------------------14--14---11------------|
G |-------------------------------------------------13--10---|
D |--11----11------11----------------------------------------|
A |------13-----13-------13----------------------------------|
E |----------------------------------------------------------|

Kiaran Crook (Rhythm)

C# - F# - C# - F#


Verse

'It's the morning after the night before, I'm on the floor...'

Josh Davidson & Kiaran Crook

C# - F# - C# - F#


Pre-Chorus

'No reason to lie, just speak your mind, cause I'm not fussed...'

Josh Davidson & Kiaran Crook

G# - F#

Chorus

'I'm always chasing shadows...'

Josh Davidson (Lead)

e |----------------------------------------------------------|
B |----------------------------------------------------------|
G |--10----10------10--------13----11----10------------------|
D |------11-----11-------11-----------------------11----13---|
A |----------------------------------------------------------|
E |----------------------------------------------------------|

e |----------------------------------------------------------|
B |----------------------------------------------------------|
G |--10----10------10--------13----11----10------------------|
D |------11-----11-------11-----------------------11----13---|
A |----------------------------------------------------------|
E |----------------------------------------------------------|

e |----------------------------------------------------------|
B |----------------------------------------------------------|
G |-----------------------------------11--11---10------------|
D |--11----11------11--------------------------------11---13-|
A |------13-----13-------13----------------------------------|
E |----------------------------------------------------------|

e |----------------------------------------------------------|
B |-----------------------------------14--14---11------------|
G |-------------------------------------------------13--10---|
D |--11----11------11----------------------------------------|
A |------13-----13-------13----------------------------------|
E |----------------------------------------------------------|

Kiaran Crook (Rhythm)

C# - F# - C# - F#


Verse

'Last nights drunken ways got carried away, but it happens all so fast...'

Josh Davidson & Kiaran Crook

C# - F# - C# - F#


Pre-Chorus

'It was the end of the night, we'd been told twice, we had to leave...'

Josh Davidson & Kiaran Crook

G# - F#

Final Chorus Part 1

'I'm always chasing shadows...'

Josh Davidson (Lead)

e |----------------------------------------------------------|
B |----------------------------------------------------------|
G |--10----10------10--------13----11----10------------------|
D |------11-----11-------11-----------------------11----13---|
A |----------------------------------------------------------|
E |----------------------------------------------------------|

e |----------------------------------------------------------|
B |----------------------------------------------------------|
G |--10----10------10--------13----11----10------------------|
D |------11-----11-------11-----------------------11----13---|
A |----------------------------------------------------------|
E |----------------------------------------------------------|

e |----------------------------------------------------------|
B |----------------------------------------------------------|
G |-----------------------------------11--11---10------------|
D |--11----11------11--------------------------------11---13-|
A |------13-----13-------13----------------------------------|
E |----------------------------------------------------------|

e |----------------------------------------------------------|
B |-----------------------------------14--14---11------------|
G |-------------------------------------------------13--10---|
D |--11----11------11----------------------------------------|
A |------13-----13-------13----------------------------------|
E |----------------------------------------------------------|

Kiaran Crook (Rhythm)

C# - F# - C# - F#

Final Chorus Part 2

'I'm always chasing shadows...'

Josh Davidson & Kiaran Crook

G# - F# - F# - Fm - D#m - C# - D#m - C#


Outro

'Last nights drunken ways got carried away but it happens all so fast.'

Josh Davidson & Kiaran Crook

C#



FULL LYRICS

Is there anybody over there or are you following me?
I look in to the distance, as far as I can see,
You said you had an early night, to catch up on your sleep,
But I heard you went out last night, you were never off your feet,

It's the morning after the night before, I'm on the floor,
Disorientated, dehydrated, waking up to another missed call,
I'm back in the real world, where everybody lives to work, (or do they work to live?)
You're only interested, when it's all take, without no give, you've got,

No reason to lie,
Just speak your mind,
Cause I'm not fussed,
As long as I know where I stand,

I'm always chasing shadows,
Whoa oh oh oh,
I'm always chasing shadows,
Whoa oh oh oh,

Last nights drunken ways got carried away but it happens all so fast,
'Til you find yourself stood with your best friend reminiscing about the past,
Everything seems better, everything seems so much better when your out your tree,
Branching on to anyone, who'll agree to disagree,

It was the end of the night,
We'd been told twice,
We had to leave,
Cause nothing lasts forever,

I'm always chasing shadows,
Whoa oh oh oh,
I'm always chasing shadows,
Whoa oh oh oh,
I'm always chasing shadows,
Whoa oh,

Last nights drunken ways got carried away but it happens all so fast.

            
            
Suggest correction
Creating personal tab
Creating personal tab
You can edit any tab online and save it as your Personal.

You can edit, replace or remove any tab part or add personal notes – all changes will be seen only by you.

Personal tabs can be accessed anytime from any device, even offline.
Learn more »
Give kudos to tab author, rate the tab!
1 2 3 4 5
comments
print report bad tab
1 comment total.
0 reply
danrocks2002 25 Feb 18, 2016 09:15 AM

This is just amazing, thank you! I've been waning to play this since it came out!

guest
You may want to rate the tab now too:
select rating
Wanna post a correction for this tab? Suggest correction