Oops, an error
Loading. Please wait.

Will You Be There Tab

217 views 12 this week
1 commentread comment
1 2 3 4 5
2 more votes to show rating
add to favorites
launch autoscroll
font size
0
reset
how to read this tab
guitar tuner
Autoscroll
slow
fast
+/-
esc
set tempo
stop
Help us to improve Ultimate-Guitar.com Take our survey!
×
Author
Difficulty
About this tab version
Added number of repeats to each part. Was this info helpful? Yes No
-------------------------------------------------------------------------------
                      The Sherlocks - Will You Be There?
-------------------------------------------------------------------------------
Tabbed by: Tom Rowland
E-mail: tomrphotography@gmail.com
Feel Free to comment and add to this tab!

https://www.youtube.com/watch?v=Vt9NoZ38qGY

Tuning: Standard


[Main Riff]

e|--------------------------------------------------|
B|---3--3--3--2--0----------------------------------|
G|-----------------2--4-----------------------------|
D|----------------------4------(REPEAT)-------------|
A|--------------------------------------------------|
E|--------------------------------------------------|(x4)

[Chords]


[Verse]

       D     G     A     Bm
e|-----5-----3-----5-----2---------------------------|
B|-----7-----3-----5-----3---------------------------|
G|-----7-----4-----6-----4---------------------------|
D|-----7-----5-----7-----4---------------------------|
A|-----5-----5-----7-----2---------------------------|
E|-----5-----3-----5-----2---------------------------|
strum once ^^


[Chorus] 

0:48 strumming pattern easy to figure out, listen on youtube.
       G     D     Bm    A
e|-----3-----5-----2-----5---------------------------|
B|-----3-----7-----3-----5---------------------------|
G|-----4-----7-----4-----6---------------------------|
D|-----5-----7-----4-----7---------------------------|
A|-----5-----5-----2-----7---------------------------|
E|-----3-----5-----2-----5---------------------------|(x2)


Back To main riff (x1)

Repeat Verse and Chorus.
Suggest correction
Give kudos to tab author, rate the tab!
1 2 3 4 5
comments
print report bad tab
1 comment total.
0 reply
joethoughhh 10 Sep 22, 2016 10:49 PM

Missed out half the song dude, hahaha

guest
You may want to rate the tab now too:
select rating
Wanna post a correction for this tab? Suggest correction