Oops, an error
Loading. Please wait.

Australia Bass Tab

version 2
version 2

Whole song

4,308 views 15 this week
1 commentread comment
1 2 3 4 5
accurate
x 4
add to favorites
launch autoscroll
font size
0
reset
guitar tuner
Tab Pro tools
  • play this tab
  • loop segment
  • change instrument
  • show fretboard
  • metronome
Autoscroll
slow
fast
+/-
esc
set tempo
stop
Difficulty
intermediate
-------------------------------------------------------------------------------
			     AUSTRALIA - The Shins
-------------------------------------------------------------------------------

Tabbed By : Bones Jones Music
e-mail: billy@bonesjonesmusic.com

Tuning: EADG

Intro:

|-----------|-9---------|-----------|-----------|
|-------11--|---11---9--|-------11--|-(11)------|
|-7-/11-----|------11---|-7-/11-----|-----------|
|-----------|-----------|-----------|-----------|

|-----------|-9---------|-----------|-------------------------|
|-------11--|---11---9--|-------11--|-(11)--141414--14-14-14--|
|-7-/11-----|------11---|-7-/11-----|-------------------------|
|-----------|-----------|-----------|-------------------------|

|-----------|-9---------|-----------|-----------|
|-------11--|---11---9--|-------11--|-(11)------|
|-7-/11-----|------11---|-7-/11-----|-----------|
|-----------|-----------|-----------|-----------|

|-----------|-9---------|-----------|-----------------------|
|-------11--|---11---9--|-------11--|-(11)--------9-6-------|
|-7-/11-----|------11---|-7-/11-----|-----------------7-----|
|-----------|-----------|-----------|-----------------------|

Verse:

|-------|--------|-------|---------|-------------|---------|
|-------|----6---|----7--|-11----6-|-7--9/11-9-7-|-6-9-4-6-|
|-4--6--|-7----7-|-9-----|-----9---|-------------|---------|
|-------|--------|-------|---------|-------------|---------|

|-------|------------|-------|--------|------|---------|
|----6--|-9--/11-9-6-|-------|----6---|---7--|-11----6-|
|-7-----|------------|-4--6--|-7----7-|-9----|-----9---|
|-------|------------|-------|--------|------|---------|

|-------------|---------|
|-7--9/11-9-7-|-6-9-4-6-|
|-------------|---------|
|-------------|---------|

Chorus:

|-------|--------------9-|---------|---------|
|-9-----|-(9)---9-9h11---|---/11-9-|-7-6-----|
|-------|----------------|-7-------|-----9-7-|
|-------|----------------|---------|---------|

|-------|----------------|-------|--------------|
|-------|----------------|----6--|-9----/11-9-6-|
|----6--|-9----/11-9-6---|-7-----|--------------|
|-7-----|----------------|-------|--------------|

|---------|---------|--------|---------|
|-------6-|-9-6-----|--------|---------|
|---6-9---|-----9-7-|-4--6-7-|-----4-6-|
|-7-------|---------|--------|-5-7-----|

|---------|---------|--------|--------|
|-------4-|---------|--------|--------|
|-4-6-7---|-----4-6-|-7----7-|-9----9-|
|---------|-5-7-----|----7---|----9---|

|----------|------|------|-----|---------|---------|
|-/7-------|------|-6----|-(6)-|-9-9-7-7-|-6-6-----|
|------7\--|-0----|------|-----|---------|-----9-9-|
|----------|------|------|-----|---------|---------|

Verse 2:

|-------|-------------|-------|--------|-------|---------|
|----6--|-9--/11-9-6--|-------|----6---|----7--|-11----6-|
|-7-----|-------------|-4--6--|-7----7-|-9-----|-----9---|
|-------|-------------|-------|--------|-------|---------|

|-------------|---------|-------|------------|
|-7--9/11-9-7-|-6-9-4-6-|----6--|-9--/11-9-6-|
|-------------|---------|-7-----|------------|
|-------------|---------|-------|------------|

|-------|--------|------|---------|-------------|---------|
|-------|--------|---7--|-11----6-|-7--9/11-9-7-|-6-9-4-6-|
|-4--6--|-7--9-7-|-9----|-----9---|-------------|---------|
|-------|--------|------|---------|-------------|---------|

Chorus 2:

|-------|--------------9-|---------|---------|
|-9-----|-(9)---9-9h11---|----11-9-|-7-6-----|
|-------|----------------|-7-------|-----9-7-|
|-------|----------------|---------|---------|

|-------|----------------|-------|--------------|
|-------|----------------|----6--|-9----/11-9-6-|
|----6--|-9----/11-9-6---|-7-----|--------------|
|-7-----|----------------|-------|--------------|

|---------|---------|--------|---------|
|-------6-|-9-6-----|--------|---------|
|---6-9---|-----9-7-|-4--6-7-|-----4-6-|
|-7-------|---------|--------|-5-7-----|

|---------|---------|--------|--------|
|---------|---------|--------|--------|
|-4--6-7--|-----4-6-|-7----7-|-9----9-|
|---------|-5-7-----|----7---|----9---|

|----------|------|------|-----|---------|---------|
|-/7-------|------|-6----|-(6)-|-9-9-7-7-|-6-6-----|
|------7\--|-0----|------|-----|---------|-----9-9-|
|----------|------|------|-----|---------|---------|

*Repeat Verse 2 for Solo

Chorus 3:

|-------|--------------9-|----9h11-9-|-8---------|
|-9-----|-(9)---9-9h11---|-----------|-----9-7-9-|
|-------|----------------|-7---------|-----------|
|-------|----------------|-----------|-----------|

|-------|----------------|-------|--------------|
|-9-----|----------------|----6--|-9----/11-9-6-|
|---11--|-9----/11-9-6---|-7-----|--------------|
|-------|----------------|-------|--------------|

|---------|---------|--------|---------|
|-------6-|-9-6-----|--------|---------|
|---6-9---|-----9-7-|-4--6-7-|-----4-6-|
|-7-------|---------|--------|-5-7-----|

|---------|---------|--------|--------|
|-------4-|---------|--------|--------|
|-4-6-7---|-----4-6-|-7----7-|-9----9-|
|---------|-5-7-----|----7---|----9---|

|----------|--------|------|------|------|------|
|-/7-------|--------|-6----|-(6)--|-7----|-(7)--|
|------7\--|-0------|------|------|------|------|
|----------|--------|------|------|------|------|

|-------|------|------|------|-----|-----|-----|-----|---------|---------|
|--6----|-(6)--|-7----|-(7)--|-6---|-7---|-6---|-7---|---------|-7-7-9-9-|
|-------|------|------|------|-----|-----|-----|-----|-9-9-9-9-|---------|
|-------|------|------|------|-----|-----|-----|-----|---------|---------|

Outro:
				        (3x)
||----------|----------|---------|-----------|| |---------|----------|
||o---9-7-6-|-7-9-11-9-|---9-7-6-|-7-9-11-9-o|| |---9-7-6-|-7-9-11-9-|
||o-7-------|----------|-7-------|----------o|| |-7-------|----------|
||----------|----------|---------|-----------|| |---------|----------|

|---------|-----9---|---------|-----9---|---------|-----9---|------||
|---9-7-6-|-7-9---9-|---9-7-6-|-7-9---9-|---9-7-6-|-7-9---9-|------||
|-7-------|---------|-7-------|---------|-7-------|---------|-7----||
|---------|---------|---------|---------|---------|---------|------||
comments
print report bad tab
1 comment total.
0 reply
Ethridge117 wrote on April 21 2014, 05:15 pm

G|------------
D|--------9-11
A|-7/9-11-----
E|------------

I want to post or [tab]
guest
You may want to rate the tab now too:
select rating
Please do not post tabs as comments. Select "correction" instead!