Oops, an error
Loading. Please wait.

Caring Is Creepy Bass Tab

version 2
version 2

Whole song

Interactive

2,486 views 3 this week
1 commentread comment
1 2 3 4 5
excellent!
x 1
add to favorites
launch autoscroll
font size
0
reset
guitar tuner
Tab Pro tools
  • play this tab
  • loop segment
  • change instrument
  • show fretboard
  • metronome
×
Best way to learn
"Caring Is Creepy"
Autoscroll
slow
fast
+/-
esc
set tempo
stop
Contributor
Tabbed By : jaronthebassist

                            Caring Is Creepy                               


                                                                  The Shins
Bass



     W                   W                   W                 
G||-------------------|-------------------|-------------------|
D||-------------------|-------------------|-------------------|
A||-------------------|-------------------|-------------------|
E||-------------------|-------------------|-------------------|


  W                   W                   W                 
-------------------|-------------------|-------------------|
-------------------|-------------------|-------------------|
-------------------|-------------------|-------------------|
-------------------|-------------------|-------------------|


  E   E   E  E  Q    E  E     Q    E  E  Q.     E   
--7s--9--11----------------|-----------------------|
-------------7--L----9--5--|--L----7---------------|
---------------------------|----------7--L---------|
---------------------------|-----------------------|


  E   E   E  E  Q    Q        W                   H        H         
--7s--9--11----------------|-------------------|--------------------|
-------------7--L----9S----|--5----------------|--------------------|
---------------------------|-------------------|--7--------5--------|
---------------------------|-------------------|--------------------|


  Q    Q    Q    Q       H        Q    Q       H        Q    E  E   
----------------------|---------------------|----------------------|
----------------------|---------------------|-----------5----5--4--|
--7----7----5----5----|--7--------5----5----|----------------------|
----------------------|---------------------|--5-------------------|


  E  E  Q    Q    E   E     E  E  Q    Q    Q     
------------------7s--9--|-----------------------|
-------------------------|-----------------------|
--7--7--7----5-----------|--7--7--7----5----5----|
-------------------------|-----------------------|


  E  E  E  E  E  E  E  E     E  E  E  E     H        Q.     E   
--------------------------|--------------|---------------------|
--------------------------|--------------|--5--------L------4--|
--7--7--7--7--5--5--5--5--|-----------5--|---------------------|
--------------------------|--5--5--5-----|---------------------|


  Q.     E  Q.     E     Q.     E  Q.     E     E   E   E  E  Q    E  E   
----------------------|----------------------|--7s--9--11----------------|
--5------4--5------4--|--5------4--5------4--|-------------7--7----9--5--|
----------------------|----------------------|---------------------------|
----------------------|----------------------|---------------------------|


  Q    E  E  Q.     E     E   E   E  E  Q    Q      
-----------------------|--7s--9--11----------------|
--5----7---------------|-------------7--7----9S----|
----------7--7---------|---------------------------|
-----------------------|---------------------------|


  Q    Q    E  E  E  E     E   E   E  E  Q    E  E   
------------------------|--7s--9--11----------------|
--5----5----L--5--5--5--|-------------7--L----9--5--|
------------------------|---------------------------|
------------------------|---------------------------|


  Q    E  E  Q.     E     E   E   E  E  Q    Q      
-----------------------|--7s--9--11----------------|
--L----7---------------|-------------7--L----9S----|
----------7--L---------|---------------------------|
-----------------------|---------------------------|


  Q.     E  E  E  Q       E  E  Q    Q    Q       H        H         
-----------------------|-----------------------|--------------------|
--5------5--L--5--L----|-----------------------|--------------------|
-----------------------|--7--7--7----5----5----|--7--------5--------|
-----------------------|-----------------------|--------------------|


  E  E  E  E  E  E  E  E     E  E  Q    Q    E  E   
--------------------------|------------------------|
--------------------------|-------------5----5--4--|
--7--7--7--7--5--5--5--5--|------------------------|
--------------------------|--5--5--5---------------|


  H        Q    E   E     E  E  Q    Q    Q       E  E  Q    Q    Q     
----------------7s--9--|-----------------------|-----------------------|
-----------------------|-----------------------|-----------------------|
--7--------5-----------|--7--7--7----5----5----|--7--7--7----5----5----|
-----------------------|-----------------------|-----------------------|


  E  E  E  E     H        Q.     E     Q.     E  Q.     E   
--------------|---------------------|----------------------|
--------------|--5--------L------4--|--5------4--5------4--|
-----------5--|---------------------|----------------------|
--5--5--5-----|---------------------|----------------------|


  Q.     E  Q.     E       H        H           H        H         
----------------------||---------------------|--------------------|
--5------4--5------L--||*--------------------|--------------------|
----------------------||*--------------------|--------------------|
----------------------||---7--------5--------|--3--------2--------|


  H        H           W                     E  E  E  E  E  E  E  E   
--------------------|--------------------||--------------------------|
--------------------|-------------------*||--5--5--5--5--5--5--5--4--|
--------------------|-------------------*||--------------------------|
--0--------2--------|--3-----------------||--------------------------|


  E  E  E  E  E  E  E  E     H        Q    Q       Q    Q    Q    Q     
--------------------------|---------------------|----------------------|
--5--5--5--5--4--4--2--2--|---------------------|----------------------|
--------------------------|--5--------5----5----|--5----5----5----5----|
--------------------------|---------------------|----------------------|


  E   E   E  E  Q    E  E     Q    E  E  Q.     E   
--7s--9--11----------------|-----------------------|
-------------7--7----9--5--|--5----7---------------|
---------------------------|----------7--7---------|
---------------------------|-----------------------|


  E   E   E  E  Q    Q        Q    Q    E  E  E  E   
--7s--9--11----------------|------------------------|
-------------7--7----9S----|--5----5----L--5--5--5--|
---------------------------|------------------------|
---------------------------|------------------------|


  E   E   E  E  Q    E  E     Q    E  E  Q.     E   
--7s--9--11----------------|-----------------------|
-------------7--L----9--5--|--L----7---------------|
---------------------------|----------7--L---------|
---------------------------|-----------------------|


  E   E   E  E  Q    Q        Q.     E  E  E  Q     
--7s--9--11----------------|-----------------------|
-------------7--L----9S----|--5------5--L--5--L----|
---------------------------|-----------------------|
---------------------------|-----------------------|


    E  E  E  E  E  E  E  E     E  E  E  E  E  E  E  E   
|---------------------------|--------------------------|
|*--------------------------|--------------------------|
|*--7--7--7--7--5--5--5--5--|--7--7--7--7--5--5--5--5--|
|---------------------------|--------------------------|


  E  E  E  E  E  E  E  E     E  E  E  E  E  E  E  E       E  E  E  E   
--------------------------|---------------------------||--------------|
--------------------------|--------------5--5--5--4--*||--------------|
--7--7--7--7--5--5--5--5--|--------------------------*||--------------|
--------------------------|--5--5--5--5---------------||--5--5--5--5--|


  E  E  E  E  E  E  E  E     Q.     E  Q.     E     Q.     E  Q.     E   
--------------------------|----------------------|----------------------|
--5--5--5--5--5--5--5--4--|--5------4--5------4--|--5------4--5------L--|
--------------------------|----------------------|----------------------|
--------------------------|----------------------|----------------------|


    H        H           H        H           H        H         
|---------------------|--------------------|--------------------|
|*--------------------|--------------------|--------------------|
|*--------------------|--------------------|--------------------|
|---7--------5--------|--3--------2--------|--0--------2--------|


  W                     W                  
--------------------||-------------------||
-------------------*||-------------------||
-------------------*||-------------------||
--3-----------------||--L----------------||




Duration Legend
---------------
W - whole
H - half
Q - quarter
E - 8th
S - 16th
T - 32nd
X - 64th
. - note dotted
|-n-|  - n-tuplets


Tablature Legend
----------------
L - tied note
x - dead note
g - grace note
(n) - ghost note
> - accentuded note
NH - natural harmonic
AH - artificial harmonic
TH - tapped harmonic
SH - semi harmonic
PH - pitch harmonic
h - hammer on
p - pull off
b - bend
br - bendRelease
pb - preBend
pbr - preBendRelease
brb - bendReleaseBend
\n/ - tremolo bar dip
\n - tremolo bar dive
-/n - tremolo bar Release up
/n\ - tremolo bar inverted dip
/n - tremolo bar return
-\n - tremolo bar Release down
S - shift slide
s - legato slide
/ -  slide into from below or out of upwards
\ -  slide into from above or out of downwards
~ - vibrato
W - wide vibrato
tr - trill
TP - tremolo picking
T - tapping
S - slap
P - pop
< - fade in
^ - brush up
v - brush down
comments
We did not receive enough feedback on this tab! Please rate:
print report bad tab
1 2 3 4 5
1 comment total.
0 reply
Loronium wrote on March 24 2015, 11:01 am

Really nice tab, but would be a bit easier to play the chorus like this so there's less unnecessary movement


|---------------------|--------------------|--------------------|--------------------|
|*--------------------|--------------------|--------------------|-------------------*|
|*--2--------0--------|--------------------|--------------------|-------------------*|
|---------------------|--3--------2--------|--0--------2--------|--3-----------------|

I want to post or [tab]
guest
You may want to rate the tab now too:
select rating
Please do not post tabs as comments. Select "correction" instead!