Oops, an error
Loading. Please wait.

Celibate Life tab

2,037 views 6 this week
1 commentread comment
1 2 3 4 5
1 last vote to show rating
add to favorites
×
Save as Personal and add changes to this tab that will be seen only by you. Learn more ›
×
You can save this tab as Personal to edit and correct it or add notes. All changes will be seen only by you. Learn more »
launch autoscroll
font size
0
reset
how to read this tab
guitar tuner
edit
Autoscroll
slow
fast
+/-
esc
set tempo
stop
Difficulty
Intro:
   D
e--2---2-3-5-3-2-------------|
b--3-------------3-----------|
g--2---------------2-0-2-0-2-|
d----------------------------|
a----------------------------|
e----------------------------|

Verse 1:
     D               Dsus4
The dust from your four-day affair,
        A         Asus4
Is now landing all over the floor
           D              Dsus4                   A
And your brown legs, the gold plated legs of my rival,
                  Asus4       G
Whose eyes had no reason to fall

Chorus:
G               D       A    G
You've led no celibate life,
G                 D        A              G
No skirt while chemicals danced on your head
G           D            A             G
You stole keys to this ride and your fables,
               A
Are falling tonight...

(Same as Verse 1)
Because of your struggle to make them,
Their tase for your past-time is fading
Remember the girls in the middle,
Are always the first to fall off

(Same as Chorus)
You've learned to live like a mouse,
Searching the cracks in the walls to remember
All of the dregs in the crowd,
You barely recall...

Solo:
e--3-2------3-2---3-2------------------------------------------------|
b------3--------3-----3-3-2------------------------------------------|
g--------2------------------2-----------0-0--------------------------|
d-----------------------------2---2-2-4-----4-4-4--2-0---------------|
a------------------------------------------------------4-4-0---2-0-0-|
e--------------------------------------------------------------------|
(listen to song for timing)


You've led no celibate life,
No skirt while chemicals danced on your head
You stole the keys to this ride,
You're falling tonight...

            
            
Suggest correction
Creating personal tab
Creating personal tab
You can edit any tab online and save it as your Personal.

You can edit, replace or remove any tab part or add personal notes – all changes will be seen only by you.

Personal tabs can be accessed anytime from any device, even offline.
Learn more »
Give kudos to tab author, rate the tab!
1 2 3 4 5
comments
print report bad tab
1 comment total.
0 reply
my_why10 10 Mar 17, 2017 05:15 AM

e--2---2-3-5-3-2-------------|
b--3-------------3-----3-----3----3----|
g--2---------------2-0---2-0---2-0-----|
d----------------------------|
a----------------------------|
e----------------------------|

I think is the intro.

guest
Wanna post a correction for this tab? Suggest correction