Oops, an error
Loading. Please wait.

Girl Inform Me Bass Tab

1,598 views 1 this week
no commentswrite comment
1 2 3 4 5
please rate
add to favorites
launch autoscroll
font size
0
reset
guitar tuner
Tab Pro tools
  • play this tab
  • loop segment
  • change instrument
  • show fretboard
  • metronome
×
Best way to learn
"Girl Inform Me"
Autoscroll
slow
fast
+/-
esc
set tempo
stop
Contributor
THE SHINS - GIRL INFORM ME
    (Tabbed by w7w7w7)



Intro
G|                                  ------------|
D|                                  ------------|
A|         No bass...               ----5/7/5---|
E|                                  ----------4-|



Verse
G|----------------------------------------------|
D|----------------------------------------------|
A|---------7-7---7-5-5---7-----------------4-4--|
E|-5-5---5-----------------5-----5-2-2---2------|

G|----------------------------------------------|
D|----------------------------------------------|
A|-4-5-5---5-7-7-7-7-7-7-7-7-7-7-7-7-7-7-7------|
E|----------------------------------------------|



Bridge
G|----------------------------------------------|
D|---------7---------------7--------------------|
A|-----------------------------------------7----|
E|-8---------------8---------------8------------|

G|---------4-4----------------------------------|
D|-------------7-7---------6-6------------------|
A|-5-5-5-5---------------------7-7--------------| x2
E|-----------------5-5-5-5----------------------|

G|----------------------------------------------|
D|----------------------------------------------|
A|----------------------------------------------|
E|-2-2-2-2-2-2-2---0-0-0-003-3-3----------------|



Verse #2
G|----------------------------------------------|
D|----------------------------------------------|
A|---------7-7---7-5-5---7-----------------4-4--|
E|-5-5---5-----------------5-----5-2-2---2------|

G|----------------------------------------------|
D|----------------------------------------------|
A|-4-------5/7/5--------------------------------|
E|---3---3--------------------------------------|

G|----------------------------------------------|
D|----------------------------------------------|
A|---------7-7---7-5-5---7-----------------4-4--|
E|-5-5---5-----------------5-----5-2-2---2------|

G|----------------------------------------------|
D|----------------------------------------------|
A|-4-5-5---5-7-7-7-7-7-7-7-7-7-7-7-7-7---6------|
E|----------------------------------------------|



Verse #3
G|------4---6-----------4---6-----------4---6---|
D|----------------------------------------------|
A|-5-----7---9-----5-----7---9-----5-----7---9--|
E|----------------------------------------------|

G|----------------------------------------------|
D|--------7/9/7-----------7/9/7-----------7/9/7-|
A|-5----7----------5----7----------5----7-------|
E|----------------------------------------------|

G|-------------6---------------6----------------|
D|-----6---9-9---------6---9-9------------------|
A|-7-7-------------7-7--------------------------|
E|----------------------------------------------|



Verse #4
G|----------------------------------------------|
D|----------------------------------------------|
A|---------7-7---7-5-5---7-----------------4-4--|
E|-5-5---5-----------------5-----5-2-2---2------|

G|----------------------------------------------|
D|----------------------------------------------|
A|-4-------5/7/5--------------------------------|
E|---3---3--------------------------------------|

G|----------------------------------------------|
D|----------------------------------------------|
A|---------7-7---7-5-5---7-----------------4-4--|
E|-5-5---5-----------------5-----5-2-2---2------|

G|----------------------------------------------|
D|----------------------------------------------|
A|-4-5-5---5-7-7-7-7-7-7-7-7-7-7-7-7-7-7-7------|
E|----------------------------------------------|



Bridge
G|----------------------------------------------|
D|---------7---------------7--------------------|
A|-----------------------------------------7----|
E|-8---------------8---------------8------------|

G|---------4-4----------------------------------|
D|-------------7-7---------6-6------------------|
A|-5-5-5-5---------------------7-7--------------| x2
E|-----------------5-5-5-5----------------------|

G|----------------------------------------------|
D|----------------------------------------------|
A|---------------------------------5------------|
E|-2-2-2-2-2-2-2---0-0-0-003-3-3----------------|
comments
We did not receive enough feedback on this tab! Please rate:
print report bad tab
1 2 3 4 5
I want to post or [tab]
guest
You may want to rate the tab now too:
select rating
Please do not post tabs as comments. Select "correction" instead!