Oops, an error
Loading. Please wait.

Girl Sailor Bass Tab

734 views 1 this week
1 commentread comment
1 2 3 4 5
please rate
add to favorites
launch autoscroll
font size
0
reset
guitar tuner
Tab Pro tools
  • play this tab
  • loop segment
  • change instrument
  • show fretboard
  • metronome
×
Best way to learn
"Girl Sailor"
Autoscroll
slow
fast
+/-
esc
set tempo
stop
Difficulty
novice
This is my first TAB and I decided to post it here due to the fact that no one else has 
Bass tabs for Girl Sailor yet, I thought I'd at least give people a start.

--------------

The beats to the Tabs are not completely accurate, but the frets/string positions should 
for most of it. You can basically take the notes and just put any beat you want to them 
long as it fits.

--------------

These are the individual parts:

Intro
G-----------------------------|
D-0------7-6-4----------------|
A--------------7-5-4----------|
E--------------------7-5-4----|


Verse 1
"The gutter may profess its love..."
G---------------------------------------------------------------------|
D---------------------------------------------------------------------|
A-----------7--7-7-7--------4--4-5----------4--4-4-4-7--7-7-7-7--7-5-7|
E--5--5-5-5---------5--5-5-5--------5--5-5-5--------------------------|


Chorus
"But You've won one too many fights..."
G---------------------2-1-----|
D-0--0-4-2-0---2----2-----4---|
A------------4----4-----------|
E-----------------------------|


Bridge 1
G------------------------|
D------------------------|
A-0--0-0-0-0--5-5-7-7----|
E------------------------|


Bridge 2
"Oh girl, sail her, don't sink her..."
G-----------0--0-0----------------|
D--4--4-4-4--------4-2-0-0--0-0-0-|
A---------------------------------|
E---------------------------------|


Bridge 2-1
"This time..."
G--------------------|
D-2--2-0--0----------|
A----------4--4-2-4--|
E--------------------|


Bridge 2-1 End
G-----|
D-0-4-|
A-----|
E-----|


Bridge 2-1 Alt. End
G-----|
D-0-2-|
A-----|
E-----|


Bridge 3
"Just a moment or two from now, Not a mind will retain even a trace..."
G----------0--0-0-0----------0--0-0-0----------0--0-0-0-----------|
D-4--4-4-4----------4--4-4-4----------4--4-4-4----------0--0-0-0--|
A-----------------------------------------------------------------|
E-----------------------------------------------------------------|

G-------------|
D--2--2-2-2---|
A-------------|
E-------------|


Ending
G-----------------------------|
D-2--2-0--0-------------------|
A----------4--4-2--4--2--0----|
E-----------------------------|


Ordering:
---------
-Intro
-Verse 1 (2X)
-Chorus (3X)
-Bridge 1
-Verse 1 (2X)
-Chorus (3X)
-Bridge 2
-Bridge 2-1 & Bridge 2-1-| End
-Bridge 2-1 & Bridge 2-1-| Alt. End
-Intro
-Verse 1 (2X) - During Guitar Solo
-Bridge 3
-Verse 1
-Chorus (3X)
-Bridge 2
-Bridge 2-1 & Bridge 2-1 End (2X)
-Ending

------------------------

There may be incorrect parts in it or disordered stuff in the Ordering thing, please 
me and I'll attempt to fix them. Thanks. If you want a continuous readable score, download 
here:

http://dl.dropbox.com/u/2000603/Girl%20Sailor%20Bass%20Tabs.txt
comments
We did not receive enough feedback on this tab! Please rate:
print report bad tab
1 2 3 4 5
1 comment total.
0 reply
AGlass0fMilk wrote on July 7 2010, 05:30 pm

I made this Tab before I registered (I don't know why)

I want to post or [tab]
guest
You may want to rate the tab now too:
select rating
Please do not post tabs as comments. Select "correction" instead!