Oops, an error
Loading. Please wait.

Gone For Good Bass Tab

version 1
version 1

Whole song

Interactive

2,137 views 1 this week
no commentswrite comment
1 2 3 4 5
excellent!
x 2
add to favorites
launch autoscroll
font size
0
reset
guitar tuner
Tab Pro tools
  • play this tab
  • loop segment
  • change instrument
  • show fretboard
  • metronome
×
Best way to learn
"Gone For Good"
Autoscroll
slow
fast
+/-
esc
set tempo
stop
Contributor
THE SHINS - GONE FOR GOOD
   (Tabbed by w7w7w7)


Intro
G|-----------------------------------------------------------------------|
D|-----------------------------------------------------------------------|
A|-7-------7-10-----7-------7-10-----------------------------------------|
E|---8----------------8--------------------------------------------------|



Verse x2
G|-----------------------------------------------------------------------|
D|-----------------------------------------------------------------------|
A|-7-------7-10-----7-------7-10-----7-------7-10-----7-------7-10-------|
E|---8----------------8----------------8----------------8----------------|

G|-----------------------------------------------------------------------|
D|-----------------------------------------------------------------------|
A|-7-8-----8-7------7-8-----8-7--------------7-10-------------7-10-------|
E|-----------------------------------7-8--------------7-8----------------|

G|-----------------------------------------------------------------------|
D|---------5----------5-----5--------------------------------------------|
A|-5---------5------5---------5------7-------7-10-----7-------7-10-------|
E|---3---------------------------------8----------------8----------------|



Chorus
G|-----------------------------------------------------------------------|
D|---7-----7-7------9-10----10-10----------------------------------------|
A|-7---------------------------------7-8-----8-8--------------7-10-------| x2
E|----------------------------------------------------7-8----------------|

G|-----------------------------------------------------------------------|
D|-----------------------------------------------------------------------|
A|---------7-10-------------7-10-----10/-8---8-7------7-5-----7-8-7-5----|
E|-7-8--------------7-8--------------------------------------------------|



During guitar solo = verse x1



Verse #2
G|-----------------------------------------------------------------------|
D|-----------------------------------------------------------------------|
A|-7-------7-10-----7-------7-10-----7-------7-10-----7-------7-10-------|
E|---8----------------8----------------8----------------8----------------|

G|-----------------------------------------------------------------------|
D|-----------------------------------------------------------------------|
A|-7-8-----8-7------7-8-----8-7--------------7-10-------------7-10-------|
E|-----------------------------------7-8--------------7-8----------------|

G|-----------------------------------------------------------------------|
D|---------5----------5-----5--------------------------------------------|
A|-5---------5------5---------5------7-8-----8-7------7-8-----8-7--------|
E|---3-------------------------------------------------------------------|

G|---------------------------------|
D|---------------------------------|
A|---------7-10-------------7-10---|
E|-7-8--------------7-8------------|



Chorus #2
G|-----------------------------------------------------------------------|
D|---7-----7-7------9-10----10-10----------------------------------------|
A|-7---------------------------------7-8-----8-8--------------7-10-------| x4
E|----------------------------------------------------7-8----------------|

G|-----------------------------------------------------------------------|
D|-----------------------------------------------------------------------|
A|---------7-10-------------7-10-----10/-8---8-7------7-5-----7-8-7------|
E|-7-8--------------7-8---------------------------------------------8----|
comments
We did not receive enough feedback on this tab! Please rate:
print report bad tab
1 2 3 4 5
I want to post or [tab]
guest
You may want to rate the tab now too:
select rating
Please do not post tabs as comments. Select "correction" instead!